Moose Express - Across The Road Chords & Tabs

 

Across The Road Chords & Tabs

Moose Express Chords & Tabs

Version: 2 Type: Tab 0 ratings
1 star 2 stars 3 stars 4 stars 5 stars
comments

Across The Road Tab

   
#----------------------------------PLEASE NOTE---------------------------------#
#This file is the author's own work and represents their interpretation of the #
#song. You may only use this file for private study, scholarship, or research. #
#------------------------------------------------------------------------------#

		Moose Express- Across the road
		Transcribed by: Robert Harris
		Any questions about this mail me robsenz@hotmail.com

	Intro
	Gtr I
  E E E  E E E  E E E  E E E
|-------------------------------|
|-------------------------------|
|-------------------0------2----|
|-----5------5----0------4------|
|---5------5----3------5--------|
|-3------5----------------------|

	Verse
  E E E E E E E E E E E E E E E E  E E E E E E E E E E E E E E E E
|--------------------------------------------------------------------|
|--------------------------------------------------------------------|
|----------------------------------5-5-5-5-5-5-5-5-7-7-7-7-7-7-7-7---|
|-5-5-5-5-5-5-5-5-7-7-7-7-7-7-7-7--5-5-5-5-5-5-5-5-7-7-7-7-7-7-7-7---|
|-5-5-5-5-5-5-5-5-7-7-7-7-7-7-7-7--3-3-3-3-3-3-3-3-5-5-5-5-5-5-5-5---|
|-3-3-3-3-3-3-3-3-5-5-5-5-5-5-5-5------------------------------------|


	Chorus
  E E E E E E E E  E E E E E E
|---------------------------------|
|---------------------------------|
|------------------------5-5-5----|
|-5-5-5-5-x-x-5-5--7-7-7-5-5-5----|
|-5-5-5-5-x-x-5-5--7-7-7-3-3-3----|
|-3-3-3-3-x-x-2-2--5-5-5----------|
[ Tab from: http://www.guitartabs.cc/tabs/m/moose_express/across_the_road_tab_ver_2.html ]
	Guitar solo / Bridge
                           ~~~
   E E E E E E E  E E E E  E    E  E  E  E  E  E  E  E    E  E E  E     E
|----------------------------------------------------------------13----13-------|
|----------------------------------------------------------------16b18-16b18----|
|-------------------------[5]--16h17-17-17-16-16-16-19b21---19------------------|
|-\4h5-5-5-4-4-4-\7-7-7-7-------4h=5--5--5--4--4--4--7----7--7-7----------------|
|-------------------------------------------------------------------------------|
|-------------------------------------------------------------------------------|


 

Duration Legend --------------- W - whole; H - half; Q - quarter; E - 8th; S - 16th; T - 32nd; X - 64th; a - acciaccatura + - note tied to previous; . - note dotted; .. - note double dotted Uncapitalized letters represent notes that are staccato (1/2 duration) Irregular groupings are notated above the duration line Duration letters will always appear directly above the note/fret number it represents the duration for. Duration letters with no fret number below them represent rests. Multi- bar rests are notated in the form Wxn, where n is the number of bars to rest for. Low melody durations appear below the staff Tablature Legend ---------------- h - hammer-on p - pull-off b - bend pb - pre-bend r - bend release (if no number after the r, then release immediately) /\ - slide into or out of (from/to "nowhere") s - legato slide S - shift slide <n> - natural harmonic [n] - artificial harmonic n(n) - tapped harmonic ~ - vibrato tr - trill T - tap TP - trem. picking PM - palm muting \n/ - tremolo bar dip; n = amount to dip \n - tremolo bar down n/ - tremolo bar up /n\ - tremolo bar inverted dip = - hold bend; also acts as connecting device for hammers/pulls <> - volume swell (louder/softer) x - on rhythm slash represents muted slash o - on rhythm slash represents single note slash Misc Legend ----------- | - bar || - double bar ||o - repeat start o|| - repeat end *| - double bar (ending) : - bar (freetime) $ - Segno & - Coda Tempo markers - <E/E./Q/Q./H/H.> = BPM(8/16=s8/s16), where s8 = swing 8ths, s16 = swing 16ths

Comments