Moore Gary - Still Got The Blues Chords & Tabs

 

Still Got The Blues Chords & Tabs

Moore Gary Chords & Tabs

Version: 1 Type: Tab 2 ratings
1 star 2 stars 3 stars 4 stars 5 stars
comments

Still Got The Blues Tab

           *************************************************** 
           *                                                 *
           *               Still got the blues:              *                                                               *
           *                                                 *
           ***************************************************

By Gary Moore.

Intro
e:|------------------------------------------------------------------|
B:|------15-17-----17----------17-----17-----15--------------15------|
G:|---14--------------------------------------------------14---------|
D:|------------------------------------------------------------------|
A:|------------------------------------------------------------------|
E:|------------------------------------------------------------------|


e:|------------------------------------------------------------------|
B:|---15---------15-----(5)-----13----(13)---10-12-13----13---(13)---|
G:|------------------------------------------------------------------|
D:|------------------------------------------------------------------|
A:|------------------------------------------------------------------|
E:|------------------------------------------------------------------|


e:|------------------------------------------------------------------|
B:|---12---------10--------------------------------------------------|
G:|-------------x----12------12----------------------------(12)------|
D:|------------x-----------------------------------------------------|
A:|------------------------------------------------------------------|
E:|------------------------------------------------------------------|

Guitar Solo
e:|------------------------------------------------------------------|
B:|------15-17---17------17---17---15---(15)-----13-15--15---15--(15)|
G:|---14--------------------------------------12---------------------|
D:|------------------------------------------------------------------|
A:|------------------------------------------------------------------|
E:|------------------------------------------------------------------|


e:|------------------------------------------------------------------|
B:|---13----(13)-------10-12-13---13--------13---(13)---12------10---|
G:|----------------------------------------------------------------12|
D:|------------------------------------------------------------------|
A:|------------------------------------------------------------------|
E:|------------------------------------------------------------------|


e:|------------------------------------------------------------------|
B:|---10-----12------12------(12)----------15-17------17---------15--|
G:|-------------------------------------14---------------------------|
D:|------------------------------------------------------------------|
A:|------------------------------------------------------------------|
E:|------------------------------------------------------------------|

[ Tab from: http://www.guitartabs.cc/tabs/m/moore_gary/still_got_the_blues_tab.html ]
e:|---------------------------------15-------------------------------|
B:|-15---15---(15)-----13-15----15------15--15---13--(13)---10-12-13-|
G:|-----------------12-----------------------------------------------|
D:|------------------------------------------------------------------|
A:|------------------------------------------------------------------|
E:|------------------------------------------------------------------|


e:|----------------------------17------------------------------------|
B:|----------------------17-17----17-20-17---------------------------|
G:|-19-19-17----19-17-19-------------------19-(19)-17-19----17-19-19-|
D:|----------19------------------------------------------19----------|
A:|------------------------------------------------------------------|
E:|------------------------------------------------------------------|

Outro Solo
e:|------------------------------------------------------------------|
B:|------15-17-----17-------------17------15---------------13-15-----|
G:|---14------------------------------------------------12-----------|
D:|------------------------------------------------x-----------------|
A:|------------------------------------------------------------------|
E:|------------------------------------------------------------------|


e:|-------------------------------------------------------10---------|
B:|--15-----15---(15)----13-------(13)----10-12-13---13------13-(13)-|
G:|------------------------------------------------------------------|
D:|------------------------------------------------------------------|
A:|------------------------------------------------------------------|
E:|------------------------------------------------------------------|


e:|------------------------------------------------------------------|
B:|--12--------10-12---12---------12---------15------(15)-----15-17--|
G:|----------x---------------------------------------------14--------|
D:|--------x---------------------------------------------------------|
A:|------------------------------------------------------------------|
E:|------------------------------------------------------------------|


e:|--------------------------------------------------------10--------|
B:|---17-----(17)----17------15----(15)------13-15---15-------15--15-|
G:|---------------------------------------12-------------------------|
D:|------------------------------------------------------------------|
A:|------------------------------------------------------------------|
E:|------------------------------------------------------------------|


e:|------------------------------------------------------------------|
B:|--13------(13)----10-12-13-------13-----13--(13)-----12----10-----|
G:|--------------------------------------------------------------12--|
D:|------------------------------------------------------------------|
A:|------------------------------------------------------------------|
E:|------------------------------------------------------------------|


e:|------------------------------------------------------------10-12-|
B:|-10--------10-10------10--10------10-10-----10-10-----10-13-------|
G:|-------12---------12-----------12--------12--------12-------------|
D:|------------------------------------------------------------------|
A:|------------------------------------------------------------------|
E:|------------------------------------------------------------------|


Jakob Matzen Denmark.
Comments