Moore Gary - Still Got The Blues Chords & Tabs

 

Still Got The Blues Chords & Tabs

Moore Gary Chords & Tabs

Version: 1 Type: Bass Tab 0 ratings
1 star 2 stars 3 stars 4 stars 5 stars
comments

Still Got The Blues Bass Tab

   
Still Got The Blues                Gary More
Bass tab
[ Tab from: http://www.guitartabs.cc/tabs/m/moore_gary/still_got_the_blues_btab.html ]
TablEdited by Jan Bjorklund
Tuning : E A D G 	Time Signature: 6/8
                              Dm7                      Dm7/G
  |           |              |          |              |           |             
|--------------------------||-------------------------|--------------------------|
|--------------------------|*-------------------------|-5------------------------|
|--------------------------||5------------------------|--------------------------|
|--------------------------||-------------------------|--------------------------|
  Cmaj7                      Fmaj7                      Bm7b5
  |           |              |           |              |           |             
|--------------------------|--------------------------|--------------------------|
|--------------------------|-3---------------3---2----|--------------------------|
|-3------------------------|--------------------------|-2------------------------|
|--------------------------|--------------------------|--------------------------|
  E7                         Am
  |           |              |           |              |           |             
|--------------------------|--------------------------|--------------------------|
|-2------------------------|--------------------------|---------------------2----|
|-----------------2--------|-------------2------------|-3---------------3--------|
|---------------------3----|-5------------------------|-------------5------------|
  Dm7                        Dm7/G                      Cmaj7
  |           |              |           |              |           |             
|--------------------------|--------------------------|--------------------------|
|--------------------------|-5------------------------|--------------------------|
|-5------------------------|--------------------------|-3------------------------|
|--------------------------|--------------------------|--------------------------|
  Fmaj7                      Bm7b5
  |           |              |           |              |           |             
|--------------------------|--------------------------|--------------------------|
|-3---------------3---2----|--------------------------|--------------------------|
|--------------------------|-2------------------------|-2-------------------2----|
|--------------------------|--------------------------|-----------------2--------|
  Esus4                      E                          Am
  |           |              |           |              |           |             
|--------------------------|--------------------------|--------------------------|
|-2---2---2---2---2---2----|-2---2---2---2------------|--------------------------|
|--------------------------|--------------------------|--------------------------|
|--------------------------|-----------------0---3----|-5------------------------|
  Em                         Am                         D9
  |           |              |           |              |           |             
|--------------------------|--------------------------|--------------------------|
|--------------------------|--------------------------|--------------------------|
|-7------------------------|--------------------------|-5------------------------|
|-----------------0---3----|-5------------------------|--------------------------|
  F9                         E7#9                       Am
  |           |              |           |              |           |             
|--------------------------|--------------------------|-------------------------||
|--------------------------|--------------------------|---------------------2---||
|-8------------------------|-7------------------------|-----------------3-------||
|--------------------------|--------------------------|-5-----------------------||
                                                        Bm7
>1|           |            >2|           |              |           |             
|-------------------------||--------------------------|--------------------------|
|---------------------2---*|--------------------------|--------------------------|
|-----------------3-------||--------------------------|--------------------------|
|-5-----------5-----------||-5-------------------6----|-7------------------------|
  E                          Am7         Bm7            C
  |           |              |           |              |           |             
|--------------------------|--------------------------|--------------------------|
|--------------------------|--------------------------|--------------------------|
|-7------------------------|--------------------------|--------------------------|
|-----------------7---3----|-5-----------7------------|-8-----------5---7---8----|
  Bm7                        E                          Fmaj7       Em
  |           |              |           |              |           |             
|--------------------------|--------------------------|--------------------------|
|--------------------------|--------------------------|--------------------------|
|--------------------------|-7-------------------7----|-8-----------7------------|
|-7------------------------|-----------------7--------|--------------------------|
  Dm7                        Am
  |           |              |           |              |           |             
|--------------------------|--------------------------|--------------------------|
|--------------------------|---------------------2----|---------------------2----|
|-5------------------------|-----------------3--------|-----------------3--------|
|--------------------------|-5------------------------|-5-----------5------------|


Created with TablEdit http://www.tabledit.com/

Comments