Moore Gary - Parisienne Walkways Chords & Tabs

 

Parisienne Walkways Chords & Tabs

Moore Gary Chords & Tabs

Version: 2 Type: Tab 0 ratings
1 star 2 stars 3 stars 4 stars 5 stars
comments

Parisienne Walkways Tab

##################################################################################
# This file is the author's own work and represents their interpretation of the  #
# song. You may only use this file for private study, scholarship, or research.  #
##################################################################################

Parisienne Walkways                               
Gary Moore

submitted by the good fellow who is bald
any corrections etc then don't blame me cos i didn't do it

can't believe there hasn't been a half decent tab of this great song
picked bits out from other versions so if you see your bit then 
thanks i owe you one. enjoy



E||------------------------------|--------------------------------------|
B||------------------------------|--15b---------15--13p---12------------|
G||------------------------------|------------------------------14p-12--|
D||------------------------------|--------------------------------------|
A||--------12------7-------------|--------------------------------------|
E||-----------------------8------|--------------------------------------|

--------------12----------------|------------------------------------|
------------------13b-----------|--13b---------13--12\---10----8-----|
--10----------------------------|---------------------------------7--|
--------------------------------|------------------------------------|
--------------------------------|------------------------------------|
--------------------------------|------------------------------------|
[ Tab from: http://www.guitartabs.cc/tabs/m/moore_gary/parisienne_walkways_tab_ver_2.html ]
---------------10----------------|------------------------------------|
--------------------13-----------|--13----------12--10\---8-----------|
--9\7/9--------------------------|-----------------------------10\-9--|
---------------------------------|------------------------------------|
---------------------------------|------------------------------------|
---------------------------------|------------------------------------|
                                                                  
-------------8\-7------------|-----------------------------------|
-----------------------------|--10b---------10--9----------------|
--7--------------------------|-----------------------10----9\-7--|
-----------------------------|-----------------------------------|
-----------------------------|-----------------------------------|
-----------------------------|-----------------------------------|
                                                                       
-------------------------------|--------------------------------------|
-------------------------------|--15b---------15--13----12------------|
--5----------------------------|------------------------------14p-12--|
-------------------------------|--------------------------------------|
---------12\-----7\------------|--------------------------------------|
------------------------8------|--------------------------------------|
                                                                      
--------------------------------|------------------------------------|
--------------15r-----15--------|--13b---------13--12p---10----8-----|
--10----------------------------|---------------------------------7--|
--------------------------------|------------------------------------|
--------------------------------|------------------------------------|
--------------------------------|------------------------------------|
                                                                      
---------------10p-8------------|------------------------------------|
--------------------------------|--13----------12--10\---8-----------|
--9\7/9-------------------------|-----------------------------10p-9--|
--------------------------------|------------------------------------|
--------------------------------|------------------------------------|
--------------------------------|------------------------------------|
                                                               
-------------8p-7--------------|------------------------------|
-------------------------------|------------------------------|
--7------------------------13--|--13b-----13b-----------------|
-------------------------------|------------------------------|
-------------------------------|------------------------------|
-------------------------------|------------------------------|
                                                                       
----------9----10--12------13b-----|--13b-------13--13--13------------|
--14\------------------------------|----------------------------------|
--14\------------------------------|----------------------------------|
--14\------------------------------|----------------------------------|
-----------------------------------|----------------------------------|
-----------------------------------|----------------------------------|
                                                                  
--------7----8/-10------13------|--12b---------------------------|
--------------------------------|--------------15b-15b-----------|
--------------------------------|--------------------------------|
--------------------------------|--------------------------------|
--------------------------------|--------------------------------|
--------------------------------|--------------------------------|
                                                                 
----------5--7--8------10b-----|--10b---------10--10------------|
-------------------------------|--------------------------------|
-------------------------------|--------------------------------|
-------------------------------|--------------------------------|
-------------------------------|--------------------------------|
-------------------------------|--------------------------------|
                                
--------4----5/-7------10------|
-------------------------------|
-------------------------------|
-------------------------------|
-------------------------------|
-------------------------------|
                                                                     
---8b------8-7-7h8p7p5-7p5---5---------5----------------------------|
---------------------------8---8p5---5---8p5-------5----------------|
-----------------------------------7b--------8p7p5---7p5------------|
---------------------------------------------------------7p5--------|
-------------------------------------------------------------7p5-3b-|
--------------------------------------------------------------------|
                                                          
--------------------------|--15------------13------------|
--------------------------|------------------------------|
--------------------------|------------------------------|
--------------------------|------------------------------|
--------------------------|------------------------------|
--------------------------|------------------------------|
                                                                            
-----------------------13-------13h15-|----13------------------------------|
------------12h13p12------------------|--------------15r15b----------17-15p|
--------------------------------------|------------------------------------|
--------------------------------------|------------------------------------|
--------------------------------------|------------------------------------|
--------------------------------------|------------------------------------|
                                                                   
------------------------------|--12----------10--10---------8-10--|
--13h15-----------------------|-----------------------------------|
------------------------------|-----------------------------------|
------------------------------|-----------------------------------|
------------------------------|-----------------------------------|
------------------------------|-----------------------------------|
                                                                  


--11--------------------------------|----------------------------|
--------------13--12----------13----|----------------------------|
---------------------------------14/|--16------------------------|
------------------------------------|----------------------------|
------------------------------------|----------------------------|
------------------------------------|----------------------------|
                                                                  
----------------------------|------------------------------------|
--------15b-----------------|------------15--13----12------------|
----------------------------|----------------------------14--12p-|
----------------------------|------------------------------------|
----------------------------|------------------------------------|
----------------------------|------------------------------------|
                                                                          
--------------12h13--10------12-----|------------------------------------|
------------------------------------|-----13b------13--12p---10------8---|
--10--------------------------------|----------------------------------7/|
------------------------------------|------------------------------------|
------------------------------------|------------------------------------|
------------------------------------|------------------------------------|
                                                                           
---------------10p-8------------|-----------------------------------------|
--------------------------------|--13---------12---10---------------------|
--9\7/9-------------------------|-----------------------12-----10p-9h10p9p|
--------------------------------|-----------------------------------------|
--------------------------------|-----------------------------------------|
--------------------------------|-----------------------------------------|
                                                             
------------7/8-7--------------|----------------------------|
---------------------------9---|--10------------------------|
--7----------------------------|----------------------------|
-------------------------------|----------------------------|
-------------------------------|----------------------------|
-------------------------------|----------------------------|
                                                                 
---------------------------7---|--------------------------------|
----------------------8-10---8-|----------------------------5---|
-------------------------------|--9---------------------5-7---5-|
-------------------------------|----------------------7---------|
-------------------------------|--------------------------------|
-------------------------------|--------------------------------|
                                                                       
----------------------------7---|-------------------------------------|
-----------------------8-10---8-|----------------------------------5--|
--------------------------------|--9/-12\-9------------------5--7-----|
---7----------------------------|-------------------------------------|
--------------------------------|-------------------------------------|
--------------------------------|-------------------------------------|
                                                                    
---------------------------8--10----|--10r-10b---------------------|
-----------------------10-----------|------------------------------|
--5-----------------9---------------|------------------------------|
----7-------------------------------|------------------------------|
------------------------------------|------------------------------|
------------------------------------|------------------------------|
                                                                    



----8-----10-------12-13-15-13-12h13p12\10-12-10-------------------|
-------------------------------------------------13-12-10----10-12-|
----------------------------------------------------------12-------|
-------------------------------------------------------------------|
-------------------------------------------------------------------|
-------------------------------------------------------------------|
                                                                                
-----10-12-13b-----------15b----15-13-12h13p12\10--|----------5----------------|
--13-----------------------------------------------|---------------------------|
---------------------------------------------------|---------------------------|
---------------------------------------------------|---------------------------|
---------------------------------------------------|---------------------------|
---------------------------------------------------|---------------------------|

[Acoustic bit]
-------0-----------0-----------1-----------1-----------1-----------1-----
---------1-----------1-------1---1-------1---1-------1---1-------1---1---
-----2-----2-----2-----2---2-------2---2-------2---2-------1---2-------1-
---2-----------2---------0-----------0-----------------------------------
-0-----------0-----------------------------------------------------------
-------------------------------------------------3-----------3-----------



-------0-----------0-----------1-----------1-----------1-----------0-----
---------1-----------0-------1---1-------1---1-------3---3-------0---0---
-----0-----0-----0-----0---2-------2---2-------2---2-------2---1-------1-
---2-----------2---------3-----------3-----------0-----------2-----------
-3-----------3-----------------------------------------------------------
-------------------------------------------------------------------------



-----------------------2----
-------2-----------3-----2--
-----2---2-----2-----4---2--
---2-------2-4---4-------2--
-0--------------------------
----------------------------
Comments