Moonstar 88 - Torete Chords & Tabs

 

Torete Chords & Tabs

Moonstar 88 Chords & Tabs

Version: 7 Type: Tab 0 ratings
1 star 2 stars 3 stars 4 stars 5 stars
comments

Torete Tab

   
i2 nga pala ung tab na nakuha ko sa iba at panagsamasama ko.......kya kaboom un
accurate hehehehe kung may question email me at slickclyde214@yahoo.com
im clyde214 nga pla....add me na rin sa friendster nyo at paki rate

Torete Tab by Moonstar 88, www.Ultimate-Guitar.Com
Tuning: e-a-d-g-b-e

	d
e|--2-2----2h3--2--------------------------------|
B|-----------------------------------------------|
G|-----------------------------------------------|
D|--0-0----0-------------------------------------|
A|-----------------------------------------------|
E|-----------------------------------------------|
	F#m
e|------2-----2----------------------------------|
B|------2-----2----------------------------------|
G|-----------------------------------------------|
D|-----------------------------------------------|
A|-----------------------------------------------|
E|-0-2-----2-------------------------------------|
	Bm7
e|------------2-----7----3h4p2h3p0---------------|<===this line 
B|------------3----------------------------------|
G|-----------------------------------------------| is quite 
D|-----------------------------------------------| fast
A|-0-1-2-3---------------------------------------|
E|-----------------------------------------------|
	g
e|---------3----3---------------------------------|
B|---------3----3---------------------------------|
G|---------4----4---------------------------------|
D|------------------------------------------------|
A|------------------------------------------------|
E|--0--3------------------------------------------|

Verse1
              d      F#m    bm               g
Sandali na lang         Maari bang pagbigyan
          d     F#m       bm            g       
Aalis na nga           Maaari bang hawakan ang 
   d        F#m    bm         g                         
iyong mga kamay    Sana ay maabot ng langit ang 
   d        F#m    bm         g break  
iyong mga ngiti    Sana ay masilip 

Refrain: 
d            F#m      bm       g 
Wag kang mag-alala    Di ko ipipilit sa 'yo
d        F#m         bm           g  
Kahit na lilipad ang isip ko'y torete sa 'yo 

Verse2: every chords (break) 
d        F#m                      bm         g
Ilang gabi pa nga lang     Nang tayo'y pinagtagpo 
d               F#m          bm                g 
Na parang may tumulak     Nanlalamig, nanginginig na ako 
d             F#m         bm         g
Akala ko nung una     May bukas ang ganito 
d             F#m           bm               g      
Mabuti pang umiwas   Pero salamat na rin at nagtagpo 
[ Tab from: http://www.guitartabs.cc/tabs/m/moonstar_88/torete_tab_ver_7.html ]
Chorus
   d      F#m     bm   g
Torete, torete, torete ako
   d      F#m     bm      g 
Torete, torete, torete sa 'yo 

Refrain: 
d            F#m      bm       g 
Wag kang mag-alala    Di ko ipipilit sa 'yo
d        F#m         bm           g         
Kahit na lilipad ang isip ko'y torete sa 'yo

   d      F#m     bm   g
Torete, torete, torete ako
   d      F#m     bm   g 
Torete, torete, torete ako 
        
Adlib
e|-----------9-910--7---------------------------|
B|------10--------------10-----------------------|
G|-5s7-------------------------------------------|
D|-----------------------------------------------|
A|-----------------------------------------------|
E|-----------------------------------------------|

e|-----------------------------------------------|
B|------109-7h8-7h8-7h8-7h810------------------|
G|-5s7-------------------------------------------| 
D|-----------------------------------------------|
A|-----------------------------------------------|
E|-----------------------------------------------|
Chorus
   d      F#m     bm   g
Torete, torete, torete ako
   d      F#m     bm      g 
Torete, torete, torete sa 'yo

e|---------------10-9-10-9-10\12-10b-----------------------------------------|
B|--------10b----------------------------------10b--8-7-8b-------------------|
G|--5/7--------------------------------5\7b----------------------------------|
D|---------------------------------------------------------------------------|<-----????
A|---------------------------------------------------------------------------|
E|---------------------------------------------------------------------------|
CHORDS
e|--2----2----2----3----3----------------------------------------------------|
B|--3----2----3----3----3----------------------------------------------------|
G|--2----2----4----0----4----------------------------------------------------|
D|-------4----4----0----5----------------------------------------------------|
A|-------4----2----2----5----------------------------------------------------|
E|-------2----x----3----3----------------------------------------------------|
    d    F#m  bm   g or g
Lead power chords in distortion...
e|-------x-------x--------x----x---x------------------------------------------|
B|-------x-------x--------x----x---x------------------------------------------|
G|-------x-------x--------x----x---x------------------------------------------|
D|-------7-------11-------4----x---x------------------------------------------|
A|-------5-------9--------2----9---5------------------------------------------|
E|-------x-------x--------x----7---3------------------------------------------|
	d	F	b or b	g
| /  slide up
| \  slide down
| h  hammer-on
| p  pull-off
| x  Mute note

===============================================================================
Comments