Moonstar 88 - Torete Chords & Tabs

 

Torete Chords & Tabs

Moonstar 88 Chords & Tabs

Version: 6 Type: Tab 0 ratings
1 star 2 stars 3 stars 4 stars 5 stars
comments

Torete Tab

   
"artist||Moonstar 88"
"tablatureBy||levonlopez"
"song||Torete"

 |intro|
e|--0v-0-1-0---0h1p1-----0-----|
b|-----------1--------0v---0-0-|
g|-----------------------------|
d|-------------------------2v--|
a|--3v---3v-----------2v-------|
e|-----------------------------|

e|-------------3v---3----------|
b|----------1v----1---0h1p0----|
g|-----------------------------|
d|--0-1-2v---------------------|
a|----------0v-----------------|
e|-----------------------------|

e|-----1---E|------------------|
b|--1v-1---A|-3----------------|
g|-----2---D|-3----------------|
d|---------g|-2----2---2-------|
a|--3v-----b|-1------1---------|
e|-(3v)----E|-1--1------1------|


e|--0v-0-1-0---0h1p1-----0-----|
b|-----------1--------0v---0-0-|
g|-----------------------------|
d|-------------------------2v--|
a|--3v---3v-----------2v-------|
e|-----------------------------|
                Am - F-
e|-----------------------------|
b|----------1v-----------------|
g|-----------------------------|
d|--0-1-2v---------------------|
a|-----------------------------|
e|-----------------------------|

   C           Em   Am
Sandali na lang   maari bang

      F      C         Em
pagbigyan  aalis na nga
   Am         F           C
Maaari bang hawakan ang iyong
[ Tab from: http://www.guitartabs.cc/tabs/m/moonstar_88/torete_tab_ver_6.html ]
       Em   Am       F
mga kamay sana ay maabot ng
                 C        Em
panalagin ang iyong mga ngiti

Am        F~~
sana ay masilip

|refrain|

C            Em
Wag kang mag-alala

Am       F
di ko ipipilit sa'yo
C          Em
kahit na lilipad ang

Am          F
isip ko'y torete sa'yo
C       Em
Ilang gabi pa nga lang

     Am       F
nang tayo'y pinagtagtagpo

C               Em
na parang may tumulak,

   Am              F
nanlalamig nanginginig na ako
C             Em      Am
akala ko nung una may bukas

      F
pa ang ganito
C            Em
mabuti pang umiwas

       Am              F
pero salamat na rin at nagtagpo

|chorus|

C      Em       Am    F
torete,torete,torete ako

C        Em     Am       F
torete,torete,torete,sa iyo

|repeat refrain|
|repeat Chorus|
|adlib| C Em Am F|2x|

e|-----3v-0-1-0-1-0---------|
b|--1v---------------3v-1-0-|
g|--------------------------|
d|--------------------------|
a|--------------------------|
E|--------------------------|

e|-----3v-0-0-0-0-1p1p1p----|
b|--1v----------------------|
g|--------------------------|
d|--------------------------|
a|--------------------------|
E|--------------------------|

|repeat Chorus 'til end|
Comments