Moonstar 88 - Torete Chords & Tabs

 

Torete Chords & Tabs

Moonstar 88 Chords & Tabs

Version: 5 Type: Tab 0 ratings
1 star 2 stars 3 stars 4 stars 5 stars
comments

Torete Tab

   
Song name  : Torete
Tabbed by  : Rein Torres 
E-mail add : unterdenlinden000@yahoo.com


Chords used 
Tuning standard

D   :  000232
F#m :  244322
Bm  :  224432
G   :  355433 (G: 320033 320003) other variations)


Intro part

E|------2-0-2------------2----------2----------3---|
B|------------3--------2-----------3-3--------3----|
G|--------------2----2------------4---4------4-----|    Repeat 2 times 
D|---0-------------4-------------4-----4----5------|    for the intro
A|-0-------------4---------0--1/2----------5-------|
E|----------------------------------------3--------|



Solo part
 
E-------------------------------------------------|
B--10-7---10H1210-7--7---------------------------|
G-7------7-----------7---7-7-7H9------------------|
D-------------------------------------------------|
A-------------------------------------------------|
E-------------------------------------------------|

E|---------10-9H1095---------------------------|
B|---10-7---------------------7-------------------|
G|-7------------------------7---7-7-7H9-7---------|
D|------------------------------------------------|
A|------------------------------------------------|
E|------------------------------------------------|


Bass part
[ Tab from: http://www.guitartabs.cc/tabs/m/moonstar_88/torete_tab_ver_5.html ]
G|--------------------------------------------------------------|
D|----------------5-4-2---0-2-0----------------5-42-00-5-4-2----|
A|-00-555--5-4-00---------------00-555--5-4-00---------------5--|
E|--------------------------------------------------------------|

G|----------------------------------------------------------------|
D|----7-----5-4-2---------7-----7-----4-----5-4-2-0----7-0------7-|
A|4/5---5-7------5-2-5-4h55-44--0-2---2-2--------5-------4-4----|
E|----------------------------------------------------------------|




G|---------------------------------------------------------------|
D|-----4-----55-4-2----------4-------4-----5-4-2-0---------------|
A|-0-2---2-2-------5555-4-4---40-2---2-2-----------------------|
E|---------------------------------------------------------------|

G|---------------------------------------------------------------|
D|-----7-7-7-5-4-44-5-4-----------4-------5-4-2-0----------------|
A|-4-5------------------5-5-5-0-2---2-2--------------------------|
E|---------------------------------------------------------------|

G|---------------------------------------------------------------|
D|---7-4---74----4-------------74------7/9-7-4----4-----------|
A|-5-----5------5----5-57-5-5------5--------------5----55-75---|
E|---------------------------------------------------------------|

/: Slide up
\: Slide down
H: Hammer
^: Tremolo

The bass part you can play it on a simple acoustic guitar 

The first part of the bass tabs I'm not quite sure if its accurate 
I've listened to it that's what I got just try it this my second time tabbing some songs
Comments