Moonstar 88 - Torete Chords & Tabs

 

Torete Chords & Tabs

Moonstar 88 Chords & Tabs

Version: 4 Type: Tab 0 ratings
1 star 2 stars 3 stars 4 stars 5 stars
comments

Torete Tab


torete:moonstar 88
tabbed by: kriselle viray


intro:


E|-2-2-3-33---------------------3--3-3------|
B|-3-3-3-33-------------3-3---------3-3-----|
G|-2-2-2-22-------------0-0-----------------|
D|---------------4------4-4-----------------|
A|-------------4---1-2--2-2----2------------|
E|-----------2----3-----------3-------------|
[ Tab from: http://www.guitartabs.cc/tabs/m/moonstar_88/torete_tab_ver_4.html ]
E|-2-2-3-33--------------------3------------|
B|-3-3-3-33-------------3-3----3------------|
G|-2-2-2-22-------------0-0-----------------|
D|---------------4------4-4-----------------|
A|-------------4---1-2--2-2----2------------|
E|-----------2----3------------3------------|

|-----------------------------------------------------------------------|
|#*#*#*#*#*#*#*#---this tab can also be used in chorus---#*#*#*#*#*#*#*#|
|-----------------------------------------------------------------------|
Comments