Moonstar 88 - Torete Chords & Tabs

 

Torete Chords & Tabs

Moonstar 88 Chords & Tabs

Version: 3 Type: Tab 0 ratings
1 star 2 stars 3 stars 4 stars 5 stars
comments

Torete Tab

   
-------------------------------------------------------------------------------
			     Torete  Moonstar88
-------------------------------------------------------------------------------

Tabbed by: stringlizner
Email: stringlizner@aol.com

Tuning: e-a-d-g-b-e

Intro (2x
e|--2---2---2h32h3p2--------2---2------------2---5--------------3--3--3-----|
B|------3-------------3------2---2------------3---32h3p2--------3-|3---3----|
G|------2--------------------2---2------------2---2-------2------4-V4----4---|
D|--0-------0----------------------------------------------------------------|
A|-------------------------------------0-1-1\2----2--------------------------|
E|------------------------1\2---2---2----------------------0-1\3------------|
    
e|--2---2---2h32h3p2--------2---2------------2---2-2------------3--3---3----|
B|------3-------------3------2---2------------3---3-3------------3--3---3----|
G|------2--------------------2---2------------4---4-4------------4--4---4----|
D|--0-------0-------------------------------------4-4---------------5---5----|
A|-------------------------------------0-1-1\2----2-2---------------5---5----|
E|------------------------1\2---2---2----------------------0-1\3------------|

Verse1
              d      F#m    bm               g
Sandali na lang         Maari bang pagbigyan
          d     F#m       bm            g       
Aalis na nga           Maaari bang hawakan ang 
   d        F#m    bm         g                         
iyong mga kamay    Sana ay maabot ng langit ang 
   d        F#m    bm         g break  
iyong mga ngiti    Sana ay masilip 

Refrain: 
d            F#m      bm       g 
Wag kang mag-alala    Di ko ipipilit sa 'yo
d        F#m         bm           g  
Kahit na lilipad ang isip ko'y torete sa 'yo 

Verse2: every chords (break) 
d        F#m                      bm         g
Ilang gabi pa nga lang     Nang tayo'y pinagtagpo 
d               F#m          bm                g 
Na parang may tumulak     Nanlalamig, nanginginig na ako 
d             F#m         bm         g
Akala ko nung una     May bukas ang ganito 
d             F#m           bm               g        Cm. . . 
Mabuti pang umiwas   Pero salamat na rin at nagtagpo 










Chorus
   d      F#m     bm   g
Torete, torete, torete ako
   d      F#m     bm      g 
Torete, torete, torete sa 'yo 
[ Tab from: http://www.guitartabs.cc/tabs/m/moonstar_88/torete_tab_ver_3.html ]
Bass line. . .mild strum. . . 
Refrain: 
d            F#m      bm       g 
Wag kang mag-alala    Di ko ipipilit sa 'yo
d        F#m         bm           g       Cm  
Kahit na lilipad ang isip ko'y torete sa 'yo

   d      F#m     bm   g
Torete, torete, torete ako
   d      F#m     bm   g 
Torete, torete, torete ako 
        
Adlib

e|--10b---------10-9-10-9-7--------------------------------------------------|
B|------10b-----------------10b-----10b--7h8-7h8-7h8-7h8-7h8-7h8------------|
G|------------7-----------------7b-------------------------------------------|
D|---------------------------------------------------------------------------|
A|---------------------------------------------------------------------------|
E|---------------------------------------------------------------------------|

e|----------------------10-9-10-9-7------------------------------------------|
B|-7h8p7---------10b----------------10b-----10b---7h8-7h8-7h8-7h8-7h8-7h8----|
G|------7----7b------7------------------7b-----------------------------------|
D|---------------------------------------------------------------------------|
A|---------------------------------------------------------------------------|
E|---------------------------------------------------------------------------|

e|---------------------------------------------------------------------------|
B|-7h8p7---------------------------------------------------------------------|
G|-------7-------------------------------------------------------------------|
D|---------------------------------------------------------------------------|
A|---------------------------------------------------------------------------|
E|---------------------------------------------------------------------------|
Chorus
   d      F#m     bm   g
Torete, torete, torete ako
   d      F#m     bm      g 
Torete, torete, torete sa 'yo

e|--10b----------10-9-10-9-10\12-10b-----------------------------------------|
B|------10b----------------------------------10b--8-7-8b---------------------|
G|------------7-----------------------5\7b-----------------------------------|
D|---------------------------------------------------------------------------|
A|---------------------------------------------------------------------------|
E|---------------------------------------------------------------------------|
CHORDS
e|--2----2----2----3----3----------------------------------------------------|
B|--3----2----3----3----3----------------------------------------------------|
G|--2----2----4----0----4----------------------------------------------------|
D|-------4----4----0----5----------------------------------------------------|
A|-------4----2----2----5----------------------------------------------------|
E|-------2----x----3----3----------------------------------------------------|
    d    F#m  bm   g or g



| /  slide up
| \  slide down
| h  hammer-on
| p  pull-off
| x  Mute note

===============================================================================
Comments