Moonstar 88 - Torete Chords & Tabs

 

Torete Chords & Tabs

Moonstar 88 Chords & Tabs

Version: 2 Type: Tab 0 ratings
1 star 2 stars 3 stars 4 stars 5 stars
comments

Torete Tab

   
hi! this is pen!
eto ung chords at tab ng torete!
pero hndi ko lang sure ko eksakto 
to, pero prang ganun na rin, pero subukan 
nyo rin un isang tab ng torete
mukhang ok rin un!!!


intro, stanza, chorus, solo,

D-Dsus F#m Bm7 G 
[ Tab from: http://www.guitartabs.cc/tabs/m/moonstar_88/torete_tab_ver_2.html ]
solo:
e|-----------9-9-10-9-7--------------------------|
B|-------10-------------10-----------------------|
G|-5s--7-----------------------------------------|
D|-----------------------------------------------|
A|-----------------------------------------------|
E|-----------------------------------------------|


e|-----------------------------------------------|
B|-------10--7-7h8b--7-7h8b--7-7h8b--7-7h8b*10-8-|
G|-5s--7-----------------------------------------| 
D|-----------------------------------------------|
A|-----------------------------------------------|
E|-----------------------------------------------|

just repeat it two times 


yung ending prang ganun rin un kaso 
may part dun na slide mo sa 12 fret.
kapain nyo nlng un. 

Tanx! God bless!






Comments