Moonstar 88 - Panalangin Chords & Tabs

 

Panalangin Chords & Tabs

Moonstar 88 Chords & Tabs

Version: 1 Type: Tab 0 ratings
1 star 2 stars 3 stars 4 stars 5 stars
comments

Panalangin Tab

   
Title: Panalangin
Artist: Moonstar 88
Album: Kami nAPO Muna
Tabber: alfonz___

Note: This song is a 3/4 signature, meaning, there are 3 beats
      in every measure. Pakinggan nyo nlng sa CD para sa timing.

INTRO:

Guitar 1

    Bsus2       A
e|--------2-----------2------------------|
B|----------2-----------2----------------|
G|------4-----4-----2-----2--------------| repeat
D|----4-----------2----------------------|   4x
A|--2-----------0------------------------|
E|---------------------------------------|

Guitar 2

e|--9\7---------7\5----------------------|
B|---------------------------------------|
G|---------------------------------------| repeat
D|---------------------------------------|   4x
A|---------------------------------------|
E|---------------------------------------|


Bass Guitar

   Bsus2       A
G|-4-------/6--2-----1-2-----------------|
D|---------------------------------------| repeat
A|---------------------------------------|   4x
E|---------------------------------------|



VERSE: (d ako sure sa exact string na ipu-pluck, 
        pero tama ung chords.. pakinggan nyo lng
        sa CD para sa timing)
   
   B           G#m         Ebm           G#
e|-------2-----------4-----------6------------|
B|---------2-----------4-----------7----------|
G|-----4-----4-----4-----4-----8-----8---6-5--|
D|---4-----------6-----------8-----------6-6--|  
A|-2-----------------------6------------------|
E|-------------4-------------------------4-4--|
   Pa...   nalangin ko  sa habang buhay..

   C#m          Ebm          E
e|-------4------------6------------7----------|
B|---------5------------7------------7--------|
G|-----6------------8------------9------------| 
D|---6------------8------------9--------------|   
A|-4------------6------------7----------------|
E|--------------------------------------------|
   makapiling ka makasama ka yan ang panalangin

   F#
e|-9---------------9---------------------------|
B|---9-----------9---9-------------------------|
G|-----11-10-11--------11-10-11----------------| 
D|---------------------------------------------|   
A|-9---------------9---------------------------|
E|---------------------------------------------|
   ko...


   B           G#m         Ebm           G#
e|-------2-----------4-----------6------------|
B|---------2-----------4-----------7----------|
G|-----4-----4-----4-----4-----8-----8---6-5--|
D|---4-----------6-----------8-----------6-6--|  
A|-2-----------------------6------------------|
E|-------------4-------------------------4-4--|
  at hindi papayag ang    pusong        ito...

   C#m          Ebm          E
e|-------4------------6------------7----------|
B|---------5------------7------------7--------|
G|-----6------------8------------9------------| 
D|---6------------8------------9--------------|   
A|-4------------6------------7----------------|
E|--------------------------------------------|
   mawala ka saking piling mahal koy iyong

   F#
e|-9---------------9---------------------------|
B|---9-----------9---9-------------------------|
G|-----11-10-11--------11-10-11----------------| 
D|---------------------------------------------|   
A|-9---------------9---------------------------|
E|---------------------------------------------|
   dinggin...

   F#
e|---------------------------------------------|
B|-12-------12-------11------------------------|
G|-------11----11----11------------------------| 
D|----11----------11---------------------------|   
A|--9-----------------9------------------------|
E|---------------------------------------------|
   ko...                ...at

CHORUS:

   E                        Ebm          G#
e|-------7-----------7------------6------------|
B|---------7-----------7------------7----------|
G|-----9-----9-----9-----9------8-----8--6-5---| 
D|---9-----------9------------8----------6-6---|   
A|-7-----------7------------6------------------|
E|---------------------------------------4-4---|
   wala nang ibang      mas mahalaga

   C#m          Ebm              E
e|-------4------------6----------7-------------|
B|---------5------------7--------7-------------|
G|-----6------------8------------9-------------| 
D|---6------------8--------------9-------------|   
A|-4------------6----------------7-------------|
E|---------------------------------------------|
   sa tamis na dulot ng pagibig nating 

e|-------7-----7-------------------------------|
B|---------7-----7-----------------------------|
G|-----------9---------------------------------| 
D|---------------------------------------------|   
A|---------------------------------------------|
E|---------------------------------------------|
   dalawa...

   E                        Ebm          G#
e|-------7-----------7------------6------------|
B|---------7-----------7------------7----------|
G|-----9-----9-----9-----9------8-----8--6-5---| 
D|---9-----------9------------8----------6-6---|   
A|-7-----------7------------6------------------|
E|---------------------------------------4-4---|
  at sana naman            makikinig ka

   C#m          Ebm          E          F# (strum)
e|-------4------------6------------7-----9-----|
B|---------5------------7------------7---9-----|
G|-----6------------8------------9------11-----| 
D|---6------------8------------9--------11-----|   
A|-4------------6------------7-----------9-----|
E|---------------------------------------------|
   kapag aking sasabihin, minamahal kta



INTRO:

Guitar 1

    Bsus2       A
e|--------2-----------2------------------|
B|----------2-----------2----------------|
G|------4-----4-----2-----2--------------| repeat
D|----4-----------2----------------------|   4x
A|--2-----------0------------------------|
E|---------------------------------------|

Guitar 2

Strum Bsus2 and A (4x, 1 strum each)

Bass Guitar

   Bsus2       A
G|-4-------/6--2-----1-2-----------------|
D|---------------------------------------| repeat
A|---------------------------------------|   4x
E|---------------------------------------|




VERSE 2:
   
   B           G#m         Ebm           G#
e|-------2-----------4-----------6------------|
B|---------2-----------4-----------7----------|
G|-----4-----4-----4-----4-----8-----8---6-5--|
D|---4-----------6-----------8-----------6-6--|  
A|-2-----------------------6------------------|
E|-------------4-------------------------4-4--|
   Pa...   nalangin ko  sa habang buhay..
[ Tab from: http://www.guitartabs.cc/tabs/m/moonstar_88/panalangin_tab.html ]
   C#m          Ebm          E
e|-------4------------6------------7----------|
B|---------5------------7------------7--------|
G|-----6------------8------------9------------| 
D|---6------------8------------9--------------|   
A|-4------------6------------7----------------|
E|--------------------------------------------|
   makapiling ka makasama ka yan ang panalangin

   F#
e|-9---------------9---------------------------|
B|---9-----------9---9-------------------------|
G|-----11-10-11--------11-10-11----------------| 
D|---------------------------------------------|   
A|-9---------------9---------------------------|
E|---------------------------------------------|
   ko...



   B           G#m         Ebm           G#
e|-------2-----------4-----------6------------|
B|---------2-----------4-----------7----------|
G|-----4-----4-----4-----4-----8-----8---6-5--|
D|---4-----------6-----------8-----------6-6--|  
A|-2-----------------------6------------------|
E|-------------4-------------------------4-4--|
   at hindi papayag ang    pusong        ito...

   C#m          Ebm          E
e|-------4------------6------------7----------|
B|---------5------------7------------7--------|
G|-----6------------8------------9------------| 
D|---6------------8------------9--------------|   
A|-4------------6------------7----------------|
E|--------------------------------------------|
   mawala ka saking piling mahal koy iyong

   F#
e|-9---------------9---------------------------|
B|---9-----------9---9-------------------------|
G|-----11-10-11--------11-10-11----------------| 
D|---------------------------------------------|   
A|-9---------------9---------------------------|
E|---------------------------------------------|
   dinggin...

F#
e|---------------------------------------------|
B|-/12--------12-------11----------------------|
G|--------11----11----11-----------------------| 
D|-----11----------11--------------------------|   
A|---9-----------------9-----------------------|
E|---------------------------------------------|
   ko...                ...at




CHORUS:

   E                        Ebm          G#
e|-------7-----------7------------6------------|
B|---------7-----------7------------7----------|
G|-----9-----9-----9-----9------8-----8--6-5---| 
D|---9-----------9------------8----------6-6---|   
A|-7-----------7------------6------------------|
E|---------------------------------------4-4---|
   wala nang ibang      mas mahalaga

   C#m          Ebm              E
e|-------4------------6----------7-------------|
B|---------5------------7--------7-------------|
G|-----6------------8------------9-------------| 
D|---6------------8--------------9-------------|   
A|-4------------6----------------7-------------|
E|---------------------------------------------|
   sa tamis na dulot ng pagibig nating 

e|-------7-----7-------------------------------|
B|---------7-----7-----------------------------|
G|-----------9---------------------------------| 
D|---------------------------------------------|   
A|---------------------------------------------|
E|---------------------------------------------|
   dalawa...

   E                        Ebm          G#
e|-------7-----------7------------6------------|
B|---------7-----------7------------7----------|
G|-----9-----9-----9-----9------8-----8--6-5---| 
D|---9-----------9------------8----------6-6---|   
A|-7-----------7------------6------------------|
E|---------------------------------------4-4---|
   at sana naman            makikinig ka

   C#m          Ebm          E          F# (strum)
e|-------4------------6------------7-----9-----|
B|---------5------------7------------7---9-----|
G|-----6------------8------------9------11-----| 
D|---6------------8------------9--------11-----|   
A|-4------------6------------7-----------9-----|
E|---------------------------------------------|
   kapag aking sasabihin, minamahal kta

   G (strum prin)
e|-10------------------------------------------|
B|-10------------------------------------------|
G|-12------------------------------------------| 
D|-12------------------------------------------|   
A|-10------------------------------------------|
E|---------------------------------------------|
   haaaahhh...


VERSE 3:

   
   C           Am          Em            A
e|-------3-----------5-----------7------------|
B|---------3-----------5-----------8----------|
G|-----5-----5-----5-----5-----9-----9---7-6--|
D|---5-----------7-----------9-----------7-7--|  
A|-3-----------------------7------------------|
E|-------------5-------------------------5-5--|
   Pa...   nalangin ko  sa habang buhay..

   Dm           Em           F
e|-------5------------7------------8----------|
B|---------6------------8------------8--------|
G|-----7------------9------------10-----------| 
D|---7------------9------------10-------------|   
A|-5------------7------------8----------------|
E|--------------------------------------------|
   makapiling ka makasama ka yan ang panalangin

   G
e|----------10--------------------------------|
B|-------------10-----------------------------|
G|-------12-----------------------------------| 
D|----12--------------------------------------|   
A|-10-----------------------------------------|
E|--------------------------------------------|
   ko...



   C           Am          Em            A
e|-------3-----------5-----------7------------|
B|---------3-----------5-----------8----------|
G|-----5-----5-----5-----5-----9-----9---7-6--|
D|---5-----------7-----------9-----------7-7--|  
A|-3-----------------------7------------------|
E|-------------5-------------------------5-5--|
   at hindi papayag ang    pusong        ito...

   Dm           Em           F
e|-------5------------7------------8----------|
B|---------6------------8------------8--------|
G|-----7------------9------------10-----------| 
D|---7------------9------------10-------------|   
A|-5------------7------------8----------------|
E|--------------------------------------------|
   mawala ka saking piling mahal koy iyong

   E
e|-------7------------7-----------------------|
B|---------7------------7---------------------|
G|-----9-----9------9-----9-------------------| 
D|---9------------9---------------------------|   
A|-7------------7-----------------------------|
E|--------------------------------------------|
   dinggin...


OUTRO:

Guitar 1

    Bsus2       A
e|--------2-----------2------------------|
B|----------2-----------2----------------|
G|------4-----4-----2-----2--------------| repeat
D|----4-----------2----------------------|   4x
A|--2-----------0------------------------|
E|---------------------------------------|

Guitar 2

e|--2-----------5------------------------|
B|--2-----------5------------------------|
G|--4-----------6------------------------| repeat
D|--4-----------7------------------------|   4x
A|--2-----------7------------------------|
E|--------------5------------------------|


repeat several tyms then end with B..


-END-

~ 10q... ~
Comments