Moonstar 88 - Panalangin Chords & Tabs

 

Panalangin Chords & Tabs

Moonstar 88 Chords & Tabs

Version: 1 Type: Bass Tab 0 ratings
1 star 2 stars 3 stars 4 stars 5 stars
comments

Panalangin Bass Tab

Song: Panalangin
Band: Moonstar 88
Tribute to: APO Hiking Society
Album: Kami nAPO Muna
Tabbed by: Gio Agudo


Intro:
G|---9s11---------9s11---------|
D|-9------7-6-7-9------7-6-7-9-|
A|-----------------------------|
E|-----------------------------|

[ Tab from: http://www.guitartabs.cc/tabs/m/moonstar_88/panalangin_btab.html ]
Verse:
G|-------8------6--8--9--11-11----------------------------|
D|-9--6----6-6--------------------------------------------|
A|---------------------------------6---------4--6--8--9-9-|
E|------------------------------4-----4-4-h6--------------|


Chorus:
G|---------------------------------|
D|---------------------------------|
A|-s7-77--6-----------4--6--8--9-9-|
E|----------6--4-4-h6--------------|
Comments