Moonspell - Vampiria Chords & Tabs

 

Vampiria Chords & Tabs

Moonspell Chords & Tabs

Version: 2 Type: Tab 0 ratings
1 star 2 stars 3 stars 4 stars 5 stars
comments

Vampiria Tab

   
Band:  Moonspell
Album: Wolfheart
Song:  Vampiria
Released: August 8, 1995
Label: Century Media
-Members-
Vocals: Fernando Ribeiro
Guitars: Ricardo Amorim
Drums: Miguel Gaspar
Keyboards: Pedro Paix„o

Transcribed By: filthianity1985
Email:          filthianity1985@yahoo.com

Refrence:
.  - palm mute           /  - slide up to
\  - slide down to       h  - hammer on
ph - pinched harmonic    b  - bend
~  - vibrato             p  - pulloff

Author's Note: I know its already been tabbed
but I feel my version is alot more accurate
and sounds better. Hopefully you enjoy this
tab and rate accordingly. Also be sure to
leave comments. !!!BE SURE TO READ ALL!!!
-Mike

BEST PRINTED IN NOTEPAD!!
===========================
Tuning Standard (EADGBE)


Synth, Vocals, Drums (0.00sec - 2.30sec)
[ Tab from: http://www.guitartabs.cc/tabs/m/moonspell/vampiria_tab_ver_2.html ]
Riff A (2.31sec - 2.38sec)
							Riff B X1
|-----------------------------------------------------|--------------------|
|-----------------------------------------------------|--------------------|
|-----------------------------------------------------|--------------------|
|-2---------9--8---2---------9/10\9----2---------9--8-|--------------------|
|-2---------7--6---2---------7/-8\7----2---------7--6-|--------9---------8-|
|-0---0--0---------0---0--0------------0---0--0-------|--7--7------6--6----|
      .  .             .  .                .  .          .  .      .  . ph

Riff C X3
This is played with Riff A (2.39sec - 3.01sec)

|--------------------|
|--------------------|
|--------------------|
|-----7----6h7--9h10-|
|-7-8---8------------|
|--------------------|
 .      .

Riff D X4
(3.02sec - 3.31sec)
|-------------------------------------------------------------------------|
|-------------------------------------------------------------------------|
|-------------------------------------------------------------------------|
|--2--22--222--222----4--44--444--444----5--55--555--555---7-7777---------|
|--2--22--222--222----4--44--444--444----5--55--555--555---5-5555---7h8---|
|--0--00--000--000----2--22--222--222----3--33--333--333---5-5555-7-------|
      ..  ...  ...       ..  ...  ...       ..  ...  ...     ....


(3.32sec - 3.39sec) Quickly back to Riff A&B (no pinch harmonic)X1

(3.40sec - 4.03sec) Play Riff A&C X3

(4.04sec - 4.28sec) Hold that last chord

(4.29sec - 4.34sec) Get some feedback

LAY off that feedback!

Riff E X8
(4.35sec - 5.30sec)
|---------------------------------------|
|---------------------------------------|
|---------------------------------------|
|----------------------2---------4------|
|-3~~~-0------2h3p2----2-------5------0-|
|-------------------00-0-----3-----2----|
                    ..     (lightly pick)
THEN SCREAM lol
End (5.35sec)
Comments