Moonspell - Raven Claws Chords & Tabs

 

Raven Claws Chords & Tabs

Moonspell Chords & Tabs

Version: 1 Type: Bass Tab 0 ratings
1 star 2 stars 3 stars 4 stars 5 stars
comments

Raven Claws Bass Tab

   
MOONSPELL
'Raven Claws'

from the album 'Irreligious'



got it from their website again... www.moonspell.fr.st





Riff A
G|-----------------|-----------------|-----------------|-----------------|
D|-----------------|-----------------|-5-5-5-5-5-5-5-5-|-8-8-7-7-----5---|
A|-5-5-5-5-5-5-5-5-|-8-8-8-8-8-8-8-8-|-----------------|---------8-8---5-|
E|-----------------|-----------------|-----------------|-----------------|

The last time he plays the last part of Riff A like this:
G|-7-7-5-----------|
D|-------8-7-8-7---|
A|---------------8-|
E|-----------------|


Riff B (4x)
G|----------------|----------------|
D|----------------|----------------|
A|-5-5-5-5-5------|----------------|
E|---------------6|-5-5-5-5-5-----8|

Variation Riff B:
G|----------------|------------------|
D|----------------|------------------|
A|-5-5-5-5-8-5-8--|------------------|
E|---------------6|-5-5-5-5-5-5-5-5-8|
[ Tab from: http://www.guitartabs.cc/tabs/m/moonspell/raven_claws_btab.html ]
2nd Variation Riff B: 
G|-----------------|-----------------|
D|-----------7-----|-----------------|
A|-5-5-5-5-8---8---|-----------------|
E|---------------6-|-5-5-5-5-5-5-5-8-|


G|----------------|--------------------|--------------|------------|------------||
D|----------------|--------------------|--------------|------------|------------||
A|---------7------|--5-----------------|--------2-----|--------7---|--3----0----||
E|--0-------------|----------8----3--2-|--3-----------|--0---------|------------||


  Chorus
G|-------------------|------------|-------------------|-------------|
D|-------------------|------------|-------------------|-------------|
A|--5--5--5--5--5--5-|--3-----0---|--5--5--5--5--5--5-|--3-----0----|
E|-------------------|------------|-------------------|-------------|


G|----------|---------|------------------||
D|----------|---------|------------------||
A|--5--5--5-|---------|--7---------------||
E|----------|--0------|--------0----3--2-||
Comments