Moonspell - Mute Chords & Tabs

 

Mute Chords & Tabs

Moonspell Chords & Tabs

Version: 1 Type: Tab 0 ratings
1 star 2 stars 3 stars 4 stars 5 stars
comments

Mute Tab

Artist - Moonspell
Song   - Mute
Albmn  - Sin Picado

TRANSCRIBED BY Nameless
E-Mail - nameless98@softhome.net

www.ton.oz.pl or http://typeon.w.interia.pl

E|------------------------------------------------------------------------|
B|------------------------------------------------------------------------|
G|-----9--9--9--9\7--7--7--7\2--2--2--2-----------------------------------|
D|--2------------------------2--2--2--2--5--5--5-----4/5\4----------------|
A|--2--7--7--7--7\5--5--5--5\0--0--0--0-----------------------------------|
E|--0------------------------------------3--3--3--0--2/3\2--0-------------|

E|------------------------------------------------------------------------|
B|------------------------------------------------------------------------|
G|-----9--9--9--9\7--7--7--7/9--9--9--9-----------------------------------|
D|--2------------------------------------5--5--5-----4/5\4----------------|
A|--2--7--7--7--7\5--5--5--5/7--7--7--7-----------------------------------|
E|--0------------------------------------3--3--3--0--2/3\2--0-------------|

E|------------------------------------------------------------------------|
B|------------------------------------------------------------------------|
G|-----9--9--9--9\7--7--7--7\2--2--2--2-----------------------------------|
D|--2------------------------2--2--2--2--5--5--5-----4/5\4----------------|
A|--2--7--7--7--7\5--5--5--5\0--0--0--0-----------------------------------|
E|--0------------------------------------3--3--3--0--2/3\2--0-------------|

E|-----------------------------------------------------------------------|
B|-----------------------------------------------------------------------|
G|-----9--9--9--9\7--7--7--7--9--9^p7--9---------------------------------|
D|--2-------------------------------------5--5--5-----4/5\4--------------|
A|--2--7--7--7--7\5--5--5--5---------------------------------------------|
E|--0-------------------------------------3--3--3--0--2/3\2--0-----------|

E|-----------------------------------------------------------------------|
B|-----------------3-----3----------------------3-----3------------------|
G|-----9\5----4/5-----5-----5----4--9\5----4/5-----5-----5---------------|
D|--2--9\5----4/5----------------2--9\5----4/5---------------------------|
A|--2----------------------------2---------------------------------------|
E|--0----------------------------0---------------------------------------|

E|-----------------------------------------------------------------------|
B|-----------------3-----3----------------------3-----3------------------|
G|--4--9\5----4/5-----5-----5----4--9\5----4/5-----5-----5---------------|
D|--2--9\5----4/5----------------2--9\5----4/5---------------------------|
A|--2----------------------------2---------------------------------------|
E|--0----------------------------0---------------------------------------|

E|----------------------------------|
B|----------------------------------|
G|---0--0--0---2--2--2--------------|
D|----4--4------5--5----------------|
A|--2--2--2---3--3--3---------------|
E|----------------------------------|

E|----------------------------------|-------------------------------------|
B|----------------------------------|-------------------------------------|
G|----------------------------------|-------------------------------------|
D|--2--2--2-----2--2--2--2----2-----|--2--2--2-----2--2--2--2----2--------|
A|--0--0--0-----0--0--0--0h3--0-----|--0--0--0-----0--0--0--0h3--0--------|
E|-----------3-------------------3--|-----------3-------------------3-----|

E|----------------------------------|-------------------------------------|
B|----------------------------------|-------------------------------------|
G|----------------------------------|-------------------------------------|
D|--2--2--2--2----------------------|-------------------------------------|
A|--0--0--0--0--5--2h3-2---2--------|--3-3-3-3-3-3-3-3--5-5-5-5-5-5-5-5---|
E|--------------3--------3---3------|--1-1-1-1-1-1-1-1--3-3-3-3-3-3-3-3---|

E|----------------------------------|-------------------------------------|
B|----------------------------------|-------------------------------------|
G|--2---------7----9----------------|--2---------7----9-------------------|
D|--2----5----7----9----------------|--2----5----7----9-------------------|
A|--0----5----5----7----------------|--0----5----5----7-------------------|
E|-------3--------------------------|-------3-----------------------------|

E|----------------------------------|-------------------------------------|
B|----------------------------------|-------------------------------------|
G|--2----7----7----9----------------|-------------------------------------|
D|--2----5----7----9----------------|-------------------------------------|
A|--0----5----5----7----------------|-------------------------------------|
E|----------------------------------|-------------------------------------|
[ Tab from: http://www.guitartabs.cc/tabs/m/moonspell/mute_tab.html ]
Solo
E|---------------------7------------|---------------------8---------------|
B|----10-8---10-8---10--------------|----12-8---12-8---12-----------------|
G|--9------9------9------9----------|--9------9------9------9-------------|
D|----------------------------------|-------------------------------------|
A|----------------------------------|-------------------------------------|
E|----------------------------------|-------------------------------------|

E|----10------10------10-8/10-------|----8---8-7----------8---8-7---------|
B|-------10------10-----------------|--------------10-8-------------10-8--|
G|--7-------7-------7---------------|--9---9-----9------9---9-----9------9|
D|----------------------------------|-------------------------------------|
A|----------------------------------|-------------------------------------|
E|----------------------------------|-------------------------------------|

Donno What...
E|----------------------------------|-------------------------------------|
B|----------------------------------|-------------------------------------|
G|----------------------------------|-------------------------------------|
D|----------------------------------|-------------------------------------|
A|----------------------------------|-------------------------------------|
E|----------------------------------|-------------------------------------|


E|----------------------------------|-------------------------------------|
B|----------------------------------|-------------------------------------|
G|--2-----2-----2-------2---2---2-2-|--7-----7-----7-------7---7---7-7----|
D|--2-----2-----2-------2---2---2-2-|--5-----5-----5-------5---5---5-5----|
A|--0-0-0-0-0-0-0-0-0-0-0-0-0-0-0-0-|--5-5-5-5-5-5-5-5-5-5-5-5-5-5-5-5----|
E|----------------------------------|-------------------------------------|

E|----------------------------------|-------------------------------------|
B|----------------------------------|-------------------------------------|
G|--7-----7-----7-------7---7---7/8/|--9-----9-----9-------9---9---9-9----|
D|--7-----7-----7-------7---7---7/8/|--9-----9-----9-------9---9---9-9----|
A|--5-5-5-5-5-5-5-5-5-5-5-5-5-5-5/6/|--7-7-7-7-7-7-7-7-7-7-7-7-7-7-7-7----|
E|----------------------------------|-------------------------------------|

E|----------------------------------|-------------------------------------|
B|----------------------------------|-------------------------------------|
G|----------------------------------|-------------------------------------|
D|--2--2--2-----2--2--2--2----2-----|--2--2--2-----2--2--2--2----2--------|
A|--0--0--0-----0--0--0--0h3--0-----|--0--0--0-----0--0--0--0h3--0--------|
E|-----------3-------------------3--|-----------3-------------------3-----|

E|----------------------------------|-------------------------------------|
B|----------------------------------|-------------------------------------|
G|----------------------------------|-------------------------------------|
D|--2--2--2--2----------------------|-------------------------------------|
A|--0--0--0--0--5--2h3-2---2--------|--3-3-3-3-3-3-3-3--5-5-5-5-5-5-5-5---|
E|--------------3--------3---3------|--1-1-1-1-1-1-1-1--3-3-3-3-3-3-3-3---|

E|------------------------------------------------------------------------|
B|------------------------------------------------------------------------|
G|-----9--9--9--9\7--7--7--7\2--2--2--2------------------------------------|
D|--2------------------------2--2--2--2--5--5--5-----4/5\4-----------------|
A|--2--7--7--7--7\5--5--5--5\0--0--0--0------------------------------------|
E|--0------------------------------------3--3--3--0--2/3\2--0--------------|

E|------------------------------------------------------------------------|
B|------------------------------------------------------------------------|
G|-----9--9--9--9\7--7--7--7/9--9--9--9------------------------------------|
D|--2------------------------------------5--5--5-----4/5\4-----------------|
A|--2--7--7--7--7\5--5--5--5/7--7--7--7------------------------------------|
E|--0------------------------------------3--3--3--0--2/3\2--0--------------|

E|-------------------------------------------------------------------------|
B|-------------------------------------------------------------------------|
G|-----9--9--9--9\7--7--7--7\2--2--2--2------------------------------------|
D|--2------------------------2--2--2--2--5--5--5-----4/5\4-----------------|
A|--2--7--7--7--7\5--5--5--5\0--0--0--0------------------------------------|
E|--0------------------------------------3--3--3--0--2/3\2--0--------------|

E|------------------------------------------------------------------------|
B|------------------------------------------------------------------------|
G|-----9--9--9--9\7--7--7--7--9--9^p7--9----------------------------------|
D|--2-------------------------------------5--5--5-----4/5\4---------------|
A|--2--7--7--7--7\5--5--5--5----------------------------------------------|
E|--0-------------------------------------3--3--3--0--2/3\2--0------------|


E|---------------------------------|--------------------------------------|
B|---------------------------------|--------------------------------------|
G|---------------------------------|--------------------------------------|
D|--5--5--5-----4/5\4--------------|--5--5--5-----4/5\4-----2-------------|
A|---------------------------------|------------------------2-------------|
E|--3--3--3--0--2/3\2--0-----------|--3--3--3--0--2/3\2--0--0-------------|
Comments