Moonspell - Her Spiegelmann Chords & Tabs

 

Her Spiegelmann Chords & Tabs

Moonspell Chords & Tabs

Version: 1 Type: Tab 0 ratings
1 star 2 stars 3 stars 4 stars 5 stars
comments

Her Spiegelmann Tab

Tabbed by:THE SANDMAN 
Email:ryan5@iamwasted.com

E--12-------------------10--------------------------------------------|
B------12------------------12-------------12-------------13-----------|
G--------------------------------------------12-------------11--------|
D---------------------------------------------------------------------|
A---------------------------------------------------------------------|
E----------------------------------------------------------------------

E--0----0--2--3--------2---3--2----7-----12--10--8--10--8------8--------
B-----------------3----------------------------------------12----12-----
G-----------------------------------------------------------------------
D-----------------------------------------------------------------------
A-----------------------------------------------------------------------
E-----------------------------------------------------------------------


E----------------------------12---14-15-14--19---20--19h20p19--17-------
B--10--12--10--8--------12----------------------------------------------
G------------------9----------------------------------------------------
D-----------------------------------------------------------------------
A-----------------------------------------------------------------------
E-----------------------------------------------------------------------
[ Tab from: http://www.guitartabs.cc/tabs/m/moonspell/her_spiegelmann_tab.html ]
E--19--17------17----------------------12------/------------------------
B----------20------20--19--20--19--15-----------------------------------
G-----------------------------------------------------------------------
D-----------------------------------------------------------------------
A-----------------------------------------------------------------------
E-----------------------------------------------------------------------

E--0----2--3---3---2--3--2---7-----8-5-7---5----------------------------
B----------------------------------------8-----8|5---10|7---7|3--8|5----
G-----------------------------------------------------------------------
D-----------------------------------------------------------------------
A-----------------------------------------------------------------------
E-----------------------------------------------------------------------

E-----------------------------------------------------------------------
B---10|7---7|3--8|5---10|7--7|3--8|5--10|7--12|3--12|5---7-8-8^-8--7-5--
G-----------------------------------------------------------------------
D-----------------------------------------------------------------------
A-----------------------------------------------------------------------
E-----------------------------------------------------------------------


E-----------------------------------------------------------------------
B-------13--12------13--12------13--12------13--12----17-------17\------
G---12----------12----------12----------12------------------------------
D-----------------------------------------------------------------------
A-----------------------------------------------------------------------
E-----------------------------------------------------------------------

E-||---------------------------------------------------------||-
B-||---------------------------------------------------------||-
G-||*------/4----------/5-----------------------------------*||-
D-||*--2-----------0--------------/7-------7/----5h7p5--4---*||-
A-||--------------------------2--------3---------------------||-
E-||---------------------------------------------------------||-
Comments