Montys Fan Club - Hearts Bleeding Chords & Tabs

 

Hearts Bleeding Chords & Tabs

Montys Fan Club Chords & Tabs

Version: 1 Type: Tab 0 ratings
1 star 2 stars 3 stars 4 stars 5 stars
comments

Hearts Bleeding Tab

   
-------------------------------------------------------------------------------
            Storm Before The Calm by, Montys Fan Club nka Montys
-------------------------------------------------------------------------------
Tabbed by: Andrew (Carl Carnevale's cousin)
Email:xero781@yahoo.com

Tuning: Standard
[ Tab from: http://www.guitartabs.cc/tabs/m/montys_fan_club/hearts_bleeding_tab.html ]
e|----------------------------------------------------------------------------|
B|----------------------------------------------------------------------------|
G|-----------------------------------------666-xxx-6-666/9-99--66-xxx-6-66----|
D|4---4-xxx-4---44-xxxx-4-4-xxx-4-4-4-444--666-xxx-6-666/9-99--66-xxx-6-66----|
A|4---4-xxx-4---44-xxxx-4-4-xxx-4-4-4-444--444-xxx-4-444/7-77--44-xxx-4-44----|
E|0h2-2-xxx-0h2-22-xxxx-0h2-xxx-0h2-2-222-------------------------------------|

e|-----------------------------------------------------------------------------|
B|-P.M.------------------------------------------------------------------------|
G||---|------------------------------------------------------------------------|
D|5-4-3------------------------------------------------------------------------|
A|5-4-3------------------------------------------------------------------------|
E|3-2-1------------------------------------------------------------------------|
| /  slide up
| \  slide down
| h  hammer-on
| p  pull-off
| ~  vibrato
| +  harmonic
| x  Mute note
===============================================================================
Comments