Monty Norman - James Bond Theme Chords & Tabs

 

James Bond Theme Chords & Tabs

Monty Norman Chords & Tabs

Version: 1 Type: Tab 0 ratings
1 star 2 stars 3 stars 4 stars 5 stars
comments

James Bond Theme Tab

***************** James Bond Theme *****************************************

D---------------------------------------------------------------------------
A------------------------------------------------------------------------
E--77-88-99-88-77-88-99-88-77---0-2222-0000-3333-222-0-2222-0000-3333-222-0

 Play Each 2 sepret from each other
[ Tab from: http://www.guitartabs.cc/tabs/m/monty_norman/james_bond_theme_tab.html ]
E---------------------------------------------------------------------------
B-------4-3-----------------------------------------------------------------
G----0------0-3-4--0-2-0----------------------------------------------------
D-2-------------------------------------------------------------------------
A------------------------5--------------------------------------------------
E----------------------------9-9-0-9-9-0-9-9-9-9-9-10-----------------------

 Tab By: G-Man   The End Might Be screwed up so Try Different ways
Comments