Montrose Ronnie - I Got The Fire Chords & Tabs

 

I Got The Fire Chords & Tabs

Montrose Ronnie Chords & Tabs

Version: 1 Type: Bass Tab 0 ratings
1 star 2 stars 3 stars 4 stars 5 stars
comments

I Got The Fire Bass Tab

Title: I Got The Fire      by: Ronnie Montrose
CD Title:  Paper Money
Tabbed by: Rick D. Huff

Intro:

G------|-----5-5-----5-7-5-----------------|
D------|--5-7---7-5-7-7---7-5--------------|
A-3-5--|-7--------------------7-6-5-3-3-5--|
E----5-|-----------------------------5---5-|

Verse:  10x

G----------------|--------|----------------|--------|
D----------------|--------|----------------|--------|
A----------------|-3------|----------------|--7-7-7-|
E-55555555555-55-|--5-3-5-|-55555555555-55-|-0-0-0--|

Lead:  2x

G------5-5-----5-7-5-----------------|
D---5-7---7-5-7-7---7-5--------------|
A--7--------------------7-6-5-3-3-5--|
E------------------------------5---5-|
[ Tab from: http://www.guitartabs.cc/tabs/m/montrose_ronnie/i_got_the_fire_btab.html ]
                                12x
G---------|------------------|----------------|--------|
D---------|-h57-h57-h57-h57--|----------------|--------|
A---------|----------------5-|----------------|--7-7-7-|
E-3-5-----|------------------|-55555555555-55-|-0-0-0--|

G------5-5-----5-7-5-----------------|
D---5-7---7-5-7-7---7-5--------------|
A--7--------------------7-6-5-3-3-5--|
E------------------------------5---5-|

Verse:  10x                  3x

G----------------|--------|----------------|--------|
D----------------|--------|----------------|--------|
A----------------|-3------|----------------|--7-7-7-|
E-55555555555-55-|--5-3-5-|-55555555555-55-|-0-0-0--|


Outro:  2x  end

G------5-5-----5-7-5-----------------|
D---5-7---7-5-7-7---7-5--------------|
A--7--------------------7-6-5-3-3-5--|
E------------------------------5---5-|

Comments