Monte Montgomery - Girl Like You Chords & Tabs

 

Girl Like You Chords & Tabs

Monte Montgomery Chords & Tabs

Version: 1 Type: Tab 0 ratings
1 star 2 stars 3 stars 4 stars 5 stars
comments

Girl Like You Tab

Artist: Monte Montgomery
Title: Girl Like You
Album: 1st and Repair
Tuning: Standard
Transcribed by: Preston
Email: audiophile8403@austin.rr.com

Intro:(random picking on marked chords)
   #      #    #      #    #      #                    #
e|-5------0----5------0----5------0-5*------0-0--------0----|
B|-5------5----5------5----5------5---5*----7-7--------5----|
G|-7----x-6----7----x-6----7----x-6---------7-7------x-6----|
D|-7----6-7----7----6-7----7----6-7---------7-6h7----6-7----|
A|-5----7-0----5----7-0----5----7-0---------5-5------7-0----|
E|------0-----------0-----------0--------------------0------|
  pm....  ..........  ..........  ..        ..         .....

Verse:
   #    #    #    #    #      #
e|-5----0----5----0----5------0---5*---|
B|-5----5----5----5----5------5--------|
G|-7----6----7----6----7----x-6--------|
D|-7----7----7----7----7----6-7--------|
A|-5----0----5----0----5----7-0--------|
E|--------------------------0----------|
   pm.......................  ....
[ Tab from: http://www.guitartabs.cc/tabs/m/monte_montgomery/girl_like_you_tab.html ]
Verse Tail:("So I shuffed my feet...)
   #    #    #
e|------5----0----|
B|------5----5----|
G|-1----7----6----|
D|-2----7----7----|
A|-2----5----0----|
E|-0--------------|
   pm.............

Chorus:("Girl like you..."
e|-0----0-0----|
B|-0----3-0----|
G|-1----2-2----|
D|-2----0-2----|
A|-2------0----|
E|-0------0----|

Chorus:("Twist of fate...")
                    #
e|-2----2----0------0----|
B|-2----3----3------5----|
G|-2----4----2----x-6----|
D|-4----4----0----6-7----|
A|-4----2---------7-0----|
E|-2----0---------0------|
                    pm...

Bridge:("You make the...")
e|-0----0----5----0--|
B|-0----0----5----0--|
G|-4----1----7----1--|
D|-4----2----7----2--|
A|-4----2----5----2--|
E|-2----0----0----0--|

Bridge:("I found a girl like...")
   #    #          #    #          #    #
e|-5----0----------5----0----------5----0----------|
B|-5----0----------5----0----------5----0----------|
G|-7----1-2-2-1----7----1-2-2-1----7----1-2-2-1----|
D|-7----2----------7----2----------7----2----------|
A|-5----2----------5----2----------5----2----------|
E|-0----0----------0----0----------0----0----------|
   pm..............................................
Comments