Monster Magnet - Space Lord Chords & Tabs

 

Space Lord Chords & Tabs

Monster Magnet Chords & Tabs

Version: 2 Type: Tab 0 ratings
1 star 2 stars 3 stars 4 stars 5 stars
comments

Space Lord Tab





Spacelord Tab










                  		                Spacelord
				    By Monster Magnet
				    
iNTRO (no distortion)
e|------------------------------------------|
B|------------------------------------------|
G|------------------------------------------|
D|------------------------------------------|
A|--3-3--6-3---8-8-8-X-3-3-6-3-XX--8-8-6-|
E|--3-3--6-3---8-8-8-X-3-3-6-3-XX-8-8-6-|

Second Verse the same, except it has light distortion.
[ Tab from: http://www.guitartabs.cc/tabs/m/monster_magnet/space_lord_tab_ver_2.html ]
chorus: Ohhhhhhhh......Spacelord Mothermother!
e|------------------------------------------|
B|------------------------------------------|
G|------------------------------------------|
D|------------------------------------------|
A|--8--8--8--8-8---8--8--8--8-------|
E|--8--8--8--8-8---8--8--8--8-------|

chorus II: I left my throne a million miles away.....(now crank distortion up!)
e|-----------------------------------------|

B|-----------------------------------------|

G|-----------------------------------------|  x2 

D|--5---5--3--5--8-8--3---2--------|

A|--3---3--1--3--6-6--1---4---------|
E|------------------------------------------|

 Crop Circle Powertrip  SpacelordBummer 19 Witches Tractor Atomic Clock
Comments