Monster Magnet - Space Lord Chords & Tabs

 

Space Lord Chords & Tabs

Monster Magnet Chords & Tabs

Version: 1 Type: Tab 0 ratings
1 star 2 stars 3 stars 4 stars 5 stars
comments

Space Lord Tab

Space Lord -  Monster Magnet
Tabbed by: stevedenny@geocities.com

Tuning:  Down 2 steps (CFBEGC ) low to high

Notes:  If you want to play along with the song, then your going to
have to tune down 
2 full steps, but if not then I would just play it in standard tuning.
The reason 
I play this song in std tuning is because an accoustic guitar just
doesn't sound great
when the strings have that much slack. One more thing, the song is
played exclusively on 
an accoustic guitar for about 2 minutes, at which point it's doubled by
an electric playing 
the same riffs.


Main Riff: (intro/verse)
[ Tab from: http://www.guitartabs.cc/tabs/m/monster_magnet/space_lord_tab.html ]
|---------------------------------------------------------------| 
|---------------------------------------------------------------|
|---------------0--0--2--0--------------------0--2--0-----------|
|--2-2--0--2----0--0--2--0-------2-2--0--2----0--2--0-----------|
|--2-2--0--2---(0)(0)-0-(0)------2-2--0--2---(0)-0-(0)----------|
|--0-0-(0)-0---------------------0-0-(0)-0----------------------|


Chorus:

|-------------------------------|
|-------------------------------|
|--2--2-2--2---2--2-2-2---------|
|--2--2-2--2---2--2-2-2---------| x 4
|--0--0-0--0---0--0-0-0---------|
|-------------------------------|

Comments