Monster Magnet - Negasonic Teenage Warhead Chords & Tabs

 

Negasonic Teenage Warhead Chords & Tabs

Monster Magnet Chords & Tabs

Version: 1 Type: Tab 0 ratings
1 star 2 stars 3 stars 4 stars 5 stars
comments

Negasonic Teenage Warhead Tab

   
#----------------------------------PLEASE NOTE---------------------------------#
#This file is the author's own work and represents their interpretation of the #
#song. You may only use this file for private study, scholarship, or research. #
#------------------------------------------------------------------------------##
NEGASONIC TEENAGE WARHEAD BY MONSTER MAGNET
~~~~~~~~~~~~~~~~~~~~~~~~~~~~~~~~~~~~~~~~~~~
Not a very hard song  all guitars are tuned down 1/2 a step

^fb = full bend
^   = sustain bend
^   = release bend

okay  i borrowed a copy of GUITAR from a friend wich included the transcription
of this song so i decided to write it down for you and me  (save us some money)
(the last part might be confusing though)

9250128@bn.fnt.hvu.nl


Intro:

e|-------------------------|--
B|-------------------------|--
G|-------------------------|--
D|-------------------------|--
A|-7-7-7-7-7-7-7-7-5-5-5-5-|--
E|-0-0-0-0-0-0-0-0-0-0-0-0-|--

repeat this during the following lyrics

 >Saw your face last night on the tube
 >Strong fine in a sucker's vacuum
 >Fifteen clicks and int's time to say bye
 >Fifteen trips and a love that won't die    GO

theme:

rythm:
e|-----------------|--------------|----------------|--------------|--
B|-------3-3--3----|--------------|-------3-3--3---|--------------|--
G|-------2-2--2--0-|-2-2-0-5--5---|-------2-2--2---|-2-2-0-5--5-0-|--
D|-2-2-0-0-0--0--0-|-2-2-0-5--5---|-2-2-0-0-0--0-0-|-2-2-0-5--5-0-|--
A|-2-2-0-0-0--0----|-0-0---3--3-0-|-2-2-0-0-0--0-0-|-0-0---3--3---|--
E|-0-0-------------|------------0-|-0-0------------|--------------|--

lead:   (wah-wah)
e|-------------------------|--
B|-------------------------|--
G|---/9---7---7~~~~---7\---|--
D|-------------------------|--
A|-------------------------|--
E|-------------------------|--


Now repeat intro part again with following lyrics:

 >Me and myself drew a world today
 >Me and myself drew a world to save
 >Broadcast dead revolution don't pay
 >Shacked-up freaks on a lazarus brain       And I can


Pre-Chorus:

e|--------------|-------------|---------------|-------------||->
B|-------3--3---|-------------|-------3-3-3---|-------------||->
G|-------2--2-0-|-2-2-0-5-5---|-------2-2-2-0-|-2-2---5-5---||->
D|-2-2-0-0--0-0-|-2-2-0-5-5-0-|-2-2-0-0-0-0-0-|-2-2-0-5-5---||->
A|-2-2-0-0------|-0-0---3-3-0-|-2-2-0-0-0-0---|-0-0-0-3-3-0-||->
E|-0-0----------|-0-----------|-0-0-----------|-----0-----0-||->

e|-------------------|
B|-------------------|
G|-2-2-2-0-5-5-5-----|
D|-2-2-2-0-5-5-5-0---|
A|-0-0-0-0-3-3-3-0---|
E|---------------0---|

 >Tell just by the climate I can tell just by the style
 >I was born and raised on venus and I may be here awhile And you're a
 >supersonic jerk-off who'll clutch until you're dirty But then a subatomic
 >genius who  jumped into the flame I will deny



chorus:
e|-------------|-----------------|---------------|---------------------|
B|-------3-3---|-----------------|-------3-3-3---|---------------------|
G|-------2-2---|-2-2-0-5-5-5-5---|-------2-2-2---|-2-2-2-2-5-5-5-5-5---|
D|-2-2-0-0-0-0-|-2-2-0-5-5-5-5---|-2-2-0-0-0-0-0-|-2-2-2-2-5-5-5-5-5-0-|
A|-2-2-0-0-0-0-|-0-0---3-3-3-3-0-|-2-2-0-0-0-0-0-|-0-0-0-0-3-3-3-3-3-0-|
E|-0-0---------|---------------0-|-0-0-----------|---------------------|

 >You   I will deny you baby  I will deny you   I will deny you baby  I will
 >you        yeah  yeah


Bridge:

Lead (wah-wah)
e|----------|------|------|------|------|
B|----9--9\-|-9-9\-|-9-9\-|-9-9\-|-9-9\-|
G|-9--9--9\-|-9-9\-|-9-9\-|-9-9\-|-9-9\-|
D|-9--------|------|------|------|------|
A|----------|------|------|------|------|
E|----------|------|------|------|------|

rythm:
e|----------------|
B|----------------|
G|----------------| repeat 4*
D|-7-5-2---2-2-2--|
A|-7-5-2---2-2-2--|
E|-5-3-0---0-0-0--|

  >Oh baby  I'm lazy  Oh  baby introduce me to god
  >Oh baby  I'm lazy  Oh  baby set a play for the door   for the door

lead: (rythm continued)
e|-----------------|              |------------------------|
B|-----------------| repeat 3 *   |------------------------|
G|--/9-7-7~~~~-7\--|              |-9-7-9/12--12--12h14p12-|
D|-----------------|              |------------------------|
A|-----------------|              |------------------------|
E|-----------------|              |------------------------|

 >                                   Yeah

Interlude:
[ Tab from: http://www.guitartabs.cc/tabs/m/monster_magnet/negasonic_teenage_warhead_tab.html ]
rythm:
e|-----------------|-----------------|-------------------------|->
B|-----------------|-----------------|-------------------------|->
G|-----------------|-----------------|-------------------------|->______
D|-----------------|-----------------|-------------------------|->      |
A|-7-7-7-7-7-7-7-7-|-7-7-7-7-7-7-7-7-|-10-10-10-10-10-10-10-10-|->      |
E|-0-0-0-0-0-0-0-0-|-0-0-0-0-0-0-0-0-|-0--0--0--0--0--0--0--0--|->      |
 |	shut me off   'cause i go crazy        with this planet         |
 |					       _________________________|
 |					      |
e|                                            |     >-------------------------|
B|                                            |     >-------------------------|
G|                                            |---> >-------------------------|
D|                                                  >-------------------------|
A|                                                  >-12-12-12-12-12-12-12-12-|
E|                                                  >-0--0--0--0--0--0--0--0--|
 |								   in my hands
 | lead:
e|-----------------|-----------------|-------------------------|->
B|-----------------|-----------------|-------------------------|->
G|--3--------------|-----------------|--7----------------------|-> ____
D|--2--------------|-----------------|-------------------------|->     |
A|--2--------------|-----------------|-------------------------|->     |
E|--0--------------|-----------------|-------------------------|->     |
 |	shut me off   'cause i go crazy        with this planet        |
 |					       ________________________|
 |					      |
e|                                            |     >-------------------------|
B|                                            |     >-------------------------|
G|					      |---> >-6-7/9-7-7-6-------------|
D|                                                  >-------------------------|
A|						    >-------------------------|
E|						    >-------------------------|
								  in my hands

e|-------------|-------------------|-----------|-----------------------------
B|-------------|-------------------|-----------|-----------------------------
G|--7p6\4------|--(4)/-------------|-12~~~~----|-14-12-14-14^fb-14^-14^rb-12-
D|-------------|-------------------|-----------|-----------------------------
A|-------------|-------------------|-----------|-----------------------------
E|-------------|-------------------|-----------|-----------------------------
	 shut me off  cause i go   crazy with this planet  in	  my	 hands


e|-------------|-------------------|-----------|-----------------------------
B|-------------|-------------------|-----------|-----------------------------
G|-------------|-------------------|-----------|-----------------------------
D|--14---------|--14\--------------|--5p4-----4|-----2-2-0---------2---------
A|-------------|-------------------|--5--------|-------------------2---------
E|-------------|-------------------|-----------|-----------------------------
	 shut me off  cause i go   crazy with this planet  in	  my	 hands

e|-------------|-------------------|-----------|-----------------------------
B|-------------|-------------------|-8~~~8~~~--|-10-10~~~10--10\-----10------
G|-------------|---x---------------|-----------|-----------------------------
D|-2~~~-----x--|---0---------------|-----------|-----------------------------
A|----------x--|---x---------------|-5~~~5~~~--|-7--7~~~-7---7\-----/7\------
E|----------x--|-------------------|-----------|-----------------------------
	 shut me off  cause i go   crazy with this planet  in	  my	 hands



e|-------------|-------------|-------------|-------------------|
B|-------3-3---|-------------|-------3-3---|-------------------|
G|-----0-2-2-0-|-2-2-0-5-5---|-------2-2-0-|-2-2-0-5-5-5-5-5---|
D|-2-2-0-0-0-0-|-2-2-0-5-5---|-2-2-0-0-0-0-|-2-2-0-5-5-5-5-5-0-|
A|-2-2-0-0-0-0-|-0-0---3-3-0-|-2-2-0-0-0-0-|-0-0---3-3-3-3-3-0-|
E|-0-0---------|-----------0-|-0-0---------|-----------------0-|
							 And I can

e|--------------|---------------------|-------------------------------------->
B|--------------|---------------------|-------------------------------------->
G|-/9-7-9~~~~~~-|-------/12~~~14~~~12-|---12-------------------------14^fb--->
D|--------------|---------------------|-14--14p12-14p12-----14p12--12-------->
A|--------------|---------------------|----------------14p12-----14---------->
E|--------------|---------------------|-------------------------------------->
 |
e|--------------|---------------------|-------------------------------------->
B|--------------|---------------------|-------------------------------------->
G|-/9--9~~~-9---|-9/12~~~~~~~~--------|-12\9~~~---------9-------------9-12-12>
D|--------------|---------------------|-------------------------------------->
A|--------------|---------------------|-------------------------------------->
E|--------------|---------------------|-------------------------------------->
       yeah		    yeah yeah yeah		 yeah
>e|-------------------------------|-
>B|-15p12-10-12-------------------|-
>G|-------------14p12-14p12----12-|-
>D|-------------------------14----|-
>A|-------------------------------|-
>E|-------------------------------|-
> |
>e|-------------------------------|-
>B|-------------------------------|-
>G|12------12~~~~~~~--12~~~~~~~---|-
>D|-------------------------------|-
>A|-------------------------------|-
>E|-------------------------------|-
       yeah yeah yeah


e|-------12------12--------------12-----12------|-
B|-15^fb---15^fb---15^fb---15^fb---15^fb--15^fb-|-
G|----------------------------------------------|-
D|----------------------------------------------|-
A|----------------------------------------------|-
E|----------------------------------------------|-
 |                                              |
e|----------------------------------------------|-
B|----------------------------------------------|-
G|--/9---------9-------9--9----9--------7-9-----|-
D|------------------------------------9---------|-
A|----------------------------------------------|-
E|----------------------------------------------|-

e|-------12------12------12------12------12------12------12-|
B|-15^fb---15^fb---15^fb---15^fb---15^fb---15^fb---15^fb----|
G|----------------------------------------------------------|
D|----------------------------------------------------------|
A|----------------------------------------------------------|
E|----------------------------------------------------------|
 |                                                          |
e|----------------------------------------------------------|
B|----------------------------------------------------------|
G|----9~~~--9~~~~~~~~~~---(9)\------------------------------|
D|----------------------------------------------------------|
A|----------------------------------------------------------|
E|----------------------------------------------------------|

e|---------------------------|-
B|-15^fb---------------------|-
G|-----------------0---------|-
D|-------------2----------2--|-
A|---------------------------|-
E|---------------------------|-
 |                           |
e|---------------------------|-
B|---------------------------|-
G|-14^fb--------(14)---------|-
D|---------------------------|-
A|---------------------------|-
E|---------------------------|-

There's some more but that's pretty much the same


Comments