Monster Magnet - Live For The Moment Chords & Tabs

 

Live For The Moment Chords & Tabs

Monster Magnet Chords & Tabs

Version: 1 Type: Tab 0 ratings
1 star 2 stars 3 stars 4 stars 5 stars
comments

Live For The Moment Tab

Live For The Moment 

Tune down 1/2 step

INTRO (acoustic)

|----------------------------------|
|----------------------------------|
|---------------------5------4-----|
|-----2-0----0------5------4---4---|
|---2----------2--3-----2----------|
|-0--------3-----------------------|

VERSE (electric, play softly)

|-------------------|
|-------------------|
|-------------------|
|-9----12-----------|
|-7----10---10--9---|
|------------8--7---|

LEAD FOR VERSE:

|-------------------|
|-------------------|
|-9----9-----9--8---|
|-------------------|
|-------------------|
|-------------------|

CHORUS (very cool)
[ Tab from: http://www.guitartabs.cc/tabs/m/monster_magnet/live_for_the_moment_tab.html ]
|--------------------------------|
|--------------------------------|
|-9-9-7-9\---------9-9-7-9\------|
|-9-9-7-9\--2-5-7--9-9-7-9\--2-5-|
|-7-7-5-7\--2-5-7--7-7-5-7\--2-5-|
|-----------0-3-5------------0-3-|

|-----------------------------------|
|-----------------------------------|
|-9-9-7-9\---------9-9-7-9\---------|
|-9-9-7-9\--2-5-7--9-9-7-9\---------|
|-7-7-5-7\--2-5-7--7-7-5-7\-9-8-7-5-|
|-----------0-3-5-----------7-6-5-3-|

MIDDLE (slow part)

|---------------------|
|---------------------|
|-7--9----------9--9--|
|-7--9----------9--9--|
|-5--7----------7--7--|
|---------------------|


Nathan Tobola - superjudge3@msn.com
Comments