Monster Magnet - God Says No Chords & Tabs

 

God Says No Chords & Tabs

Monster Magnet Chords & Tabs

Version: 1 Type: Tab 0 ratings
1 star 2 stars 3 stars 4 stars 5 stars
comments

God Says No Tab

   
Band-MONSTER MAGNET
SONG-GOD SAYS NO
TABBER-THE LEGENDARY FUNK TRAVELER


Dropped-Db TUNING (Eb,Bb,Gb,Db,Ab,Db)

[ Tab from: http://www.guitartabs.cc/tabs/m/monster_magnet/god_says_no_tab.html ]
e|---------------|
b|---------------|
g|-------5-------|
d|-5-3-5-5-------|
a|-5-3-5-3-------|
d|-5-3-5---------|

Every once in a while you can switch it to this

e|---------------|
b|---------------|
g|-------5-------|
d|-7-5-7-5-------|
a|-7-5-7-3-------|
d|-7-5-7---------|

The rezt you can FiGure out on your own-Its pretty simple

FOLK LUV \|/
R.I.P. DAVID BARKSDALE
Comments