Monster Magnet - Crop Circle Chords & Tabs

 

Crop Circle Chords & Tabs

Monster Magnet Chords & Tabs

Version: 1 Type: Tab 0 ratings
1 star 2 stars 3 stars 4 stars 5 stars
comments

Crop Circle Tab

   
--------------------------------------------------------
         Crop Circle - Monster Magnet 
--------------------------------------------------------

Artist: Monster Magnet
Song: Crop Circle
Album: Powertrip 1998
Tuning: Normal eBGDAE
Tabbed by: Stefan Persson
Email: spe94@hotmail.com

Comments: This is my first tab ever but i think itīs 
very close to the original. If you want to change any 
thing in this tab or if you know who the solo should 
be played please e-mail it tom me at spe@hotmail.com  

Intro:

                2 Times
e|--ACOUSTIC-------------------|
B|-----------------------------|
G|-----------------------------|
D|-222222222222-0-222222222222-|
A|-222222222222-0-222222222222-|
E|-000000000000-0-000000000000-|

   2 Times and then 2 Times with drums       
e|--ACOUSTIC--------------------------| 
B|------------------------------------|
G|- 2-0-------------4-0---------------|
D|--2-0-2-2-2-2-2-0-4-0-2-2-2-2-2-2-0-|
A|--0-0-2-2-2-2-2-0-2-0-2-2-2-2-2-2-0-|
E|------0-0-0-0-0-0-0---0-0-0-0-0-0-0-|

  Riff 1   4 times   
e|--DISTORTED-------------------------| 
B|------------------------------------|
G|- 2-0-------------4-0---------------|
D|--2-0-2-2-2-2-2-0-4-0-2-2-2-2-2-2-0-|
A|--0-0-2-2-2-2-2-0-2-0-2-2-2-2-2-2-0-|
E|------0-0-0-0-0-0-0---0-0-0-0-0-0-0-|

Verse:
e|------------------------------------| 
B|------------------------------------|
G|- 2-0-------------4-0---------------|
D|--2-0-2-2-2-2-2-0-4-0-2-2-2-2-2-2-0-|
A|--0-0-2-2-2-2-2-0-2-0-2-2-2-2-2-2-0-|
E|------0-0-0-0-0-0-0---0-0-0-0-0-0-0-|
[ Tab from: http://www.guitartabs.cc/tabs/m/monster_magnet/crop_circle_tab.html ]
Chorus:
e|-----------------------------------------------|
B|-----------------------------------------------|
G|-55555555-77777777-----------------------------|
D|-55555555-77777777-----------------------------|
A|-33333333-55555555-0-0-3-0--0303-0-0-3-0--0303-|
E|-------------------0-0-3-0--0303-0-0-3-0--0303-|     

Bridge:
e|-----------------------|
B|-----------------------|
G|-7-9-9-9-9-9-9-7-7-7-7-|
D|-7-9-9-9-9-9-9-7-7-7-7-|
A|-5-7-7-7-7-7-7-5-5-5-5-|
E|-----------------------|

Lyrics:

Come on...
I was born underwater, I dried out in the sun,
I started humping volcano's baby when I was too young,
I started surfing the madhouse, and I decided to stay,
I got an itch in my cosmic pocket and it won't go away,

Chorus:
Instead of dragging your swamp for your lost love
Come to me I'm your living crop circle...yeah

Like a lamb to the slaughter, like a peach in the sun,
I'll curl you up in my flame pit baby until your way over done,
I came up from the ground, I came down from the sky,
And I'm grabbing her knees like a worm with a mission,
Cause I'm made out of salt and I'm made out of coal,
And I live like a king in a ?

Chorus:
Instead of 'make you a man'; 'make you a monkey' 
Throw your head in the living crop circle

Bridge:
Let me tell you about it
Let me tell you about it...come on,

Yeah, yeah, yeah, yeah, yeah, yeah I'm your living crop circle
Yeah, yeah, yeah, yeah, yeah, yeah I'm your living crop circle
Yeah, yeah, yeah, yeah, yeah, yeah I'm your living crop circle
Yeah, yeah, yeah, yeah, yeah, yeah I'm your living crop circle

If you want to change any thing in this tab or if you know who the 
solo should be played please e-mail it tom me at spe@hotmail.com
Comments