Monster Magnet - Bummer Chords & Tabs

 

Bummer Chords & Tabs

Monster Magnet Chords & Tabs

Version: 3 Type: Tab 0 ratings
1 star 2 stars 3 stars 4 stars 5 stars
comments

Bummer Tab

   
Artist:monster magnet
Song: bummer
album; powertrip.

Reg. tuning
opening riff
e------------]
b------------]
g------------] 4x
d-5/-(9)9-9--]
a-5/-(9)9-9--]
E-3/-(7)7-7--]

verse (play 12 times)
e-------------------------]
b-------------------------]
g-------------------------]
d-7/-(9)9-9-xx-12-xx-5-xx-] : riff 2 
a-7/-(9)9-9-xx-12-xx-5-xx-]
E-5/-(7)7-7-xx-10-xx-3-xx-]


pre chorus

E5
[ Tab from: http://www.guitartabs.cc/tabs/m/monster_magnet/bummer_tab_ver_3.html ]
d-2-2-2-2-2-2-2-2--2-2-2-2-2-2-2-2-]
a-2-2-2-2-2-2-2-2--2-2-2-2-2-2-2-2-]
E-0-0-0-0-0-0-0-0--0-0-0-0-0-0-0-0-]

play riff 2 2x

play pre chorus


chorus
d-4-4-4-4-4-4-4-4-4--5-5-5-5-5-5-5-5-5-]
a-4-4-4-4-4-4-4-4-4--5-5-5-5-5-5-5-5-5-]
E-2-2-2-2-2-2-2-2-2--3-3-3-3-3-3-3-3-3-]


bridge

e-----------------------]
b-----------------------]
g------------10-9-7-7/9-]
d-9-9-9-9-x--10-9-7-7/9-]
a-9-9-9-9-x---8-7-5-5/7-]
E-7-7-7-7-x-------------]


I'm not sure how many times you repeat the bridge. 
If u no the song u should be able 2 figure it out 
Comments