Monkees - Valleri Crds Chords & Tabs

 

Valleri Crds Chords & Tabs

Monkees Chords & Tabs

Version: 1 Type: Chords 0 ratings
1 star 2 stars 3 stars 4 stars 5 stars
comments

Valleri Crds Chords

   
#----------------------------------PLEASE NOTE--------------------------------#
#This file is the author's own work and represents their interpretation of the#
#song. You may only use this file for private study, scholarship, or research.#
#-----------------------------------------------------------------------------#
                               "Valleri"
                       (Tommy Boyce - Bobby Hart)

[Notated in F, although it sounds somewhere between F and F#.  Probably
 recorded in E and sped up.]

Intro:

(pseudo-flamenco nylon-string guitar):

Fm        Eb        Db        C
/ / / /   / / / /   / / / /   / / / /

Chorus:

fuzz guitar [2X]:
[ Tab from: http://www.guitartabs.cc/tabs/m/monkees/valleri_crds_crd.html ]
  (C)        F                 Eb      Ab        Bb               C
   v   v     v   v   v   v     v   v   v   v     v   v   v   v     v
-----------|-----------------|-----------------|-----------------|---
-----------|-----------------|-----------------|-----------------|---
-----------|-----------------|-----------------|-----------------|---
-----------|-------------3-1-|-----------------|-----------------|---
-----------|-----------3-----|-------3-3---1---|-------------1-3-|---
-4-4---3---|-1---1-----------|-----------------|-4---4-----4-----|---




Words"
                       (Tommy Boyce - Bobby Hart)

Intro:

bass (w/tremolo gtr and bell tree) [4X; continue into verse]:

C#m
 v   v   v   v
-------6---------
---------7-6-----
-4-----------7-6-
-----------------

             

"Tear Drop City"
                       (Tommy Boyce / Bobby Hart)

Intro:

(Ab)                        [N.C.]
 v   v   v   v     v   v   v   v
-----------------|-----------------
-----------------|-----------------
-----------------|-----------------
---6-46-46-46----|---6-46-6--------
----6-----6------|----6--6---------
-4-----4-----4---|-4-------4-------



"Someday Man"
                    (Paul Williams - Roger Nichols)


Intro:

Bass w/acoustic guitar [6X; horns and band enter 3rd time]

      (A)     (B)
 v     v   v   v   v
-----|-----9--98-------
-2s--|-7---------9---79
-----|-------------7---
-----|-----------------
Comments