Monkees - The Girl I Knew Somewhere Intro Chords & Tabs

 

The Girl I Knew Somewhere Intro Chords & Tabs

Monkees Chords & Tabs

Version: 1 Type: Chords 0 ratings
1 star 2 stars 3 stars 4 stars 5 stars
comments

The Girl I Knew Somewhere Intro Chords

   
#----------------------------------PLEASE NOTE--------------------------------#
#This file is the author's own work and represents their interpretation of the#
#song. You may only use this file for private study, scholarship, or research.#
#-----------------------------------------------------------------------------#
                      "The Girl I Knew Somewhere"
                             (Mike Nesmith)

Intro:
[ Tab from: http://www.guitartabs.cc/tabs/m/monkees/the_girl_i_knew_somewhere_intro_crd.html ]
  guitar (probably played in A, Capo III)
  
   C         Csus4   C         Csus2   C         Csus4   C             Csus2
   v     v   v   v   v     v   v   v   v     v   v   v   v     v   v   v   v
  -----|-----------------|-----------------|-----------------|----------------
  -5---|-------6-----5---|-------3-----5---|-------6-----5---|-----------3----
  -5---|-------5-----5---|-------5-----5---|-------5-----5---|-----------5----
  -5---|-------5-----5---|-------5-----5---|-------5-----5---|-----------5----
  -3---|-------3-----3---|-------3-----3---|-------3-----3---|-----------3----
  -----|-----------------|-----------------|-----------------|----------------
  
  bass fill (4th bar):
  
                                                            10h12-h12-h12-----
                                                             |-----------10h12
                                                             |----------------
                                                             |----------------


-- another ace 60's tab from Andrew Rogers



=================================================================================================================================



Date: Mon, 24 Nov 1997 03:04:59 -0500
From: Steve Demkin 
Subject: Chords: For Pete's Sake (Monkees)

Written by:  P.Tork & J.Richards
>From the 1967 Album "Headquarters"
Colgems Records COS#103

Intro Riff:

e---5--3-------|-------------|
B---5----5--3--|-------------|
G--------------|-5-----------|
D--------------|-------------|
A--------------|-------------|
E--------------|-------------|
    1  2 3  4    1 (drum fill)


Repeat verse & chorus above, then fade over chords below:


   Am  Amsus4 Am Amsus4 Am  Cadd9 Am
E----0----0----0----0----0----0----0---|  
B----1----3----1----3----1----1----1---|  
G----2----2----2----2----2----0----2---|  
D----2----2----2----2----2----0----2---|   
A----0----0----0----0----0----x----0---|  
E--------------------------------------|   
                             (Hammer) 


END WITH INTRO RIFF AND DRUM FILL. 
Comments