Monkees - Pleasant Valley Sunday Intro Chords & Tabs

 

Pleasant Valley Sunday Intro Chords & Tabs

Monkees Chords & Tabs

Version: 1 Type: Tab 0 ratings
1 star 2 stars 3 stars 4 stars 5 stars
comments

Pleasant Valley Sunday Intro Tab

#----------------------------------PLEASE NOTE---------------------------------#
#This file is the author's own work and represents their interpretation of the #
#song. You may only use this file for private study, scholarship, or research. #
#------------------------------------------------------------------------------#
Date: 22 Sep 92 13:25:00 GMT
Sender: nntp@acsu.buffalo.edu
Organization: University at Buffalo
Lines: 57
News-Software: VAX/VMS VNEWS 1.41
Nntp-Posting-Host: ubvmsb.cc.buffalo.edu

the intro to the song goes like this:
[ Tab from: http://www.guitartabs.cc/tabs/m/monkees/pleasant_valley_sunday_intro_tab.html ]
(RHY FIG 1)
-----------------------------------|---5------3-----5----3--------------
-----------------------------------|---5------3-----5----3--------------
-----2---0--------------------0----|---6------4-----6----4--------------
-----------4--2----2-----0--4---4--|---7------5-----7----5--------------
---0---0--------0-----0------------|---7------5-----7----5--------------
-----------------------------------|---5------3-----5----3--------------
                            (twice)
                                     ^
                                     |
                                     |
                                     played on acoustic 3rd + 4th thru



also, anyone who knows how to enter these into nevada.edu, please do so)




"Pleasant Valley Sunday"
                      (Gerry Goffin - Carole King)

Intro:

two electric guitars [3X]; acoustic guitar enters 2nd time:

     A             G/A  [bass tacet during intro]
     v   v   v   v     v   v   v   v
---|-----------------|-----------------
---|-----------------|-----------------
---|-----------------|-----------------
---|-7-----5-4-0---2-|-----0---5-4-0---
-0-|-----0-------0---|---0----------(0)
---|-----------------|-----------------
Comments