Monkees - I M A Believer Chords & Tabs

 

I M A Believer Chords & Tabs

Monkees Chords & Tabs

Version: 1 Type: Tab 0 ratings
1 star 2 stars 3 stars 4 stars 5 stars
comments

I M A Believer Tab

   
#----------------------------------PLEASE NOTE---------------------------------#
#This file is the author's own work and represents their interpretation of the #
#song. You may only use this file for private study, scholarship, or research. #
#------------------------------------------------------------------------------#

I’m a believer~~~~~ Monkees
This is another song I have made my own
It is all tabbed from memory according to how I play the song
I hope all you out there like to improvise solos
:D


Intro:
e|1-1--0-0-----|----------------------------|
B|3-3--1-1--3--|----------------------------|
G|----------4--|----------------------------|
D|-------------|----------------------------|
A|-------------|-----3------3------3------3-|
E|-------------|-3h5----3h5----3h5----3h5---|

Lyrics start here

e|--3--3----33-3-|--5--5--x---1--1---3--|--3-x--x-x---|-3-3-x--x-x---|
B|.-3--3----33-3-|--7--7--x---1--1---3--|--3-x--x-x---|-3-3-x--x-x--.|
G|--4--4----44-4-|--7--7--x---2--2---4--|--4-x--x-x---|-4-4-x--x-x---|
D|--5--5----55-5-|--7--7--x---3--3---5--|--5-x--------|-5-5-x--------|
A|.-5--5----55-5-|--5--5--x---3--3---5--|--5-x--------|-5-5-x-------.|
E|--3--3----33-3-|--x--x--x---1--1---3--|--3-x--------|-3-3-x--------|
       
   
[ Tab from: http://www.guitartabs.cc/tabs/m/monkees/i_m_a_believer_tab.html ]
e|--3-----33-3-3--3-------------|
B|.-5-----55-5-5--3------------.|
G|--5-----55-5-5--4-------------|
D|--5-----55-5-5--5-------------|
A|.-3-----33-3-3--5--------2---.|
E|--3-----33-3-3--3--3-0-3---3- |
  
     

e|-3--33-3--3---3---33--3-3--5----------|
B|-5--55-5--5---3---33--3-3--7----------|
G|-5--55-5--5---4---44--4-4--7----------|
D|-5--55-5--5---5---55--5-5--7----------|
A|-3--33-3--3---5---55--5-5--5-/17--17--|
E|-3--33-3--3---3---33--3-3--x----------|
   

          e|--11--00------|
          B|.-33--11--3--.|
          G|----------4---|
          D|--------------|
          A|.------------.|
          E|--------------|

 
e|-------------------3-3---3-3--3--5----5--5-5------------------------
b|-------------------3-3---3-3--3--7----7--7-7------------------------
g|-------------------4-4---4-4--4--7----7--7-7------------------------
D|----0--0h2---------5-5---5-5--5--7----7--7-7------------------------
A|----2--2h3---------5-5---5-5--5--5----5--5-5-----3-----3-----3-----3
E|----3--3p0---------3-3---3-3--3--x----x--x-x-3h5---3h5---3h5---3h5--
(I’m in love mmm I’m a believer  I couldn’t leave her if I tried......)

Then do a short fill enough time for 2 progressions from G to D to F



(Another fill for twice as long this time 
Then repeat the chorus
Then end on D chord or fade out through the chorus)
Comments