Monica - Angel Of Mine Chords & Tabs

 

Angel Of Mine Chords & Tabs

Monica Chords & Tabs

Version: 1 Type: Tab 1 rating
1 star 2 stars 3 stars 4 stars 5 stars
comments

Angel Of Mine Tab

   

TablEdited by 
Tuning : E A D G B E 	Time Signature: 4/4

 |       |       |       |        |       |       |       |        |       |       |       |        |       |       |       |        
|--------------------------------|--------------------------------|--------------------------------|--------------------------------|
|4-----------4---------------4---|3-----------4---------------4---|4-----------4---------------4---|3-----------4---------------4---|
|--------3---------------3-------|--------3-----------0---3-------|--------3---------------3-------|--------3-----------0---3-------|
|----3---------------3-----------|----3---------------------------|----3---------------3-----------|----3---------------------------|
|--------------------------------|1-----------3-------------------|--------------------------------|1-----------3-------------------|
|--------------------------------|--------------------------------|--------------------------------|--------------------------------|
[ Tab from: http://www.guitartabs.cc/tabs/m/monica/angel_of_mine_tab.html ]
 |       |       |       |        |       |       |       |        |       |       |       |        |       |       |       |        
|--------------------------------|--------------------------------|1-----------3-------------------|--------------------------------|
|4-----------4---------------4---|3-----------4---------------4---|--------3-------------------1---|------------1---------------1---|
|--------3---------------3-------|--------3-----------0---3-------|----3---------------3-----------|--------0---------------0-------|
|----3---------------3-----------|----3---------------------------|0-----------------------3-------|----1---------------1-----------|
|--------------------------------|1-----------3-------------------|--------------------------------|--------------------------------|
|4-------------------------------|--------------------------------|--------------------3-------4---|--------------------------------|

 |       |       |       |        |       |       |       |        |       |       |       |        |       |       |       |        
|--------------------------------|--------------------------------|--------------------------------|--------------------------------|
|4-----------4---------------4---|3-----------4---------------4---|4-----------4---------------4---|3-----------4---------------4---|
|--------3---------------3-------|--------3-----------0---3-------|--------3---------------3-------|--------3-----------0---3-------|
|----3---------------3-----------|----3---------------------------|----3---------------3-----------|----3---------------------------|
|--------------------------------|--------------------------------|--------------------------------|--------------------------------|
|--------------------------------|--------------------------------|--------------------------------|--------------------------------|

 |       |       |       |        |       |       |       |        |       |       |       |        |       |       |       |        
|--------------------------------|--------------------------------|1-----------3-------------------|--------------------------------|
|4-----------4---------------4---|3-----------4---------------4---|--------3-------------------1---|------------1---------------1---|
|--------3---------------3-------|--------3-----------0---3-------|----3---------------3-----------|--------0---------------0-------|
|----3---------------3-----------|----3---------------------------|------------------------3-------|----1---------------1-----------|
|--------------------------------|--------------------------------|--------------------------------|--------------------------------|
|--------------------------------|--------------------------------|--------------------------------|--------------------------------|


Created with TablEdit http://www.tabledit.com/
Comments