Money Eddie - Shakin Chords & Tabs

 

Shakin Chords & Tabs

Money Eddie Chords & Tabs

Version: 1 Type: Tab 3 ratings
1 star 2 stars 3 stars 4 stars 5 stars
comments

Shakin Tab

   
Eddie Money
Shakin'

Great song, never saw it posted anywhere

Intro 
    A A B B    A B       A A B B     A B    A A B B
-----------------------------------------------------
-----------------------------------------------------
-----------------------------------------------------
----7-7-9-9----7-9-------7-7-9-9-----7-9----7-7-9-9--
----7-7-9-9----7-9-------7-7-9-9-----7-9----7-7-9-9--
----5-5-7-7----5-7-------5-5-7-7-----5-7----5-5-7-7--

[ Tab from: http://www.guitartabs.cc/tabs/m/money_eddie/shakin_tab.html ]
Verses   
    A A B B
------------------
------------------
------------------
----7-7-9-9-------   
----7-7-9-9-------
----5-5-7-7-------

Choruses
    A        B        G        A
----------------------------------------
----------------------------------------
----------------------------------------
----7--------9--------5--------7--------
----7--------9--------5--------7--------
----5--------7--------3--------5--------


Solos and fills are over the A Major scale on the 9th fret

Bridge is just the chorus palm-muted



``Eddie Money Rules!!




Yost with the Most


Comments