Moments In Grace - Stratus Chords & Tabs

 

Stratus Chords & Tabs

Moments In Grace Chords & Tabs

Version: 1 Type: Tab 0 ratings
1 star 2 stars 3 stars 4 stars 5 stars
comments

Stratus Tab

Tabbed by:coheedANDnofx6
AIM:warxall0thextime

Tuning:Standard

   ::INTRO::
e|------------------|
B|---1---2-3/4-4-4--|
G|-----3------------|
D|------------------|
A|------------------|
E|------------------|
[ Tab from: http://www.guitartabs.cc/tabs/m/moments_in_grace/stratus_tab.html ]
                       ::VERSE::      
e|---------------------------------------------------------------|
B|---------------------------------------------------------------|
G|---5-5-5-7--x-x-x-x--5-5-5-5-5-5---3-3-5--3-3-5--7-7-7-7-7-7---|
D|---x-x-x-x--x-x-x-x--x-x-x-x-x-x---x-x-x--x-x-x--x-x-x-x-x-x---|
A|---3-3-3-5--x-x-x-x--3-3-3-3-3-3---1-1-3--1-1-3--5-5-5-5-5-5---|
E|---------------------------------------------------------------|
    Dont mute ^ ^ ^ ^ on first verse. 

       ::CHORUS::
e|----------------------|--Only--|
B|----------------------|--For---|
G|----------------------|-Second-|
D|----------------------|-Chorus-|
A|----------------------|--------|
E|---1~--3~--4~--4p0~---|---4~---|

        ::OUTRO::
e|----------------------|
B|----------------------|
G|---5-5-5-5--7-7-7-7---|
D|---x-x-x-x--x-x-x-x---|
A|---3-3-3-3--5-5-5-5---|
E|----------------------|

Play the lead a couple of times during the outro. 

Very Easy Song To Play Once You Get The Rhythm.
RATE PLEASE
Comments