Molotov - Voto Latino Chords & Tabs

 

Voto Latino Chords & Tabs

Molotov Chords & Tabs

Version: 2 Type: Tab 0 ratings
1 star 2 stars 3 stars 4 stars 5 stars
comments

Voto Latino Tab

   
=================LAS PISADAS=====================
+-----------------------------------------------+
| Molotov                                       |
| VOTO LATINO                                   |
| Molotov                                       |
| ?Y Donde Juguaran las Ni?as? (1996)           |
+-------------------------------------------TAB-+
=============DEL ROCK EN ESPA~OL=================

intro:

---------------------------------------------------------------|
---------------------------------------------------------------|
-----------------------5-3---------------------------5-5-5-----|
----------5--3------3-------5---------------5--3---------------|
--------5------3-3-----------------------5--------3------------|
--3-3--------------------------------3-3-----------------------|

durante la primera parte del verso es:
[ Tab from: http://www.guitartabs.cc/tabs/m/molotov/voto_latino_tab_ver_2.html ]
---3--3-------6------3-----1---------3-3-----6-----3---1----6-6----|
---3--3-------6------3-----1---------3-3-----6-----3---1----6-6----|
-------------------------------------------------------------------|
-------------------------------------------------------------------|
-------------------------------------------------------------------|
-------------------------------------------------------------------|

en la segunda parte del verso no lo saque, pero improvisa dentro de
estas notas siguiendo el ritmo, se debe oir bien si lo haces bien.

-------------------|
-------------------|
-----3--5----------|
---3--5------------|
--3--5-------------|
-3-----------------|

el coro es:
G            F
voto latino.....entre las masas
G            F
voto latino.....para la igualdad de raza

para empezar el requinto es asi:

--------------------------------------|
--------------------------------------|
--------------------------------------|
-------------------------------5------|
--5-5-5-5---7-7---9-9--10-10----------|
--------------------------------------|

y como dije en el segundo coro, improvisale en eas notas o en esas
pisadas mas o menos siguiendo la cancion, luego se vuelve a hacer este
riff y al ultimo se hace al revez antes del ultimo coro. el final es
basicamente:

--5-5-5--7-7--9-9--7-----9h10-9h10----------- en la 5a cuerda

bueno espero que les funcione......

=================================================
Ra?l Mart?nez Vite
(guaira3@hotmail.com)
Comments