Molotov - Puto Chords & Tabs

 

Puto Chords & Tabs

Molotov Chords & Tabs

Version: 2 Type: Bass Tab 0 ratings
1 star 2 stars 3 stars 4 stars 5 stars
comments

Puto Bass Tab

	MOLOTOV - Puto,
	
	Tabbed by Leighton Holloway.  (Holloway@zeta.org.au)
__________________________________________________________________
	
	verse part 1					repeat as many times as necessary

	E-------------------------------------------------
	A-------3------------2-/-3------------2---------
	D-------------------------------------------------
	G------------------4----------------4------------

	next part					repeat as many times as necessary
[ Tab from: http://www.guitartabs.cc/tabs/m/molotov/puto_btab_ver_2.html ]
	E------------3--------------------------------------------
	A-------3--------3------------3-----2-----3-----------
	D---------------------------------------------------------
	G---------------------------------------------------------


	Chorus

	E-----------------x-----------x-------------------------------
	A----3----------------------------------0-1-2----------------
	D--------------------------------------------------------------
	G--------3-h5-------3-h5-------3---------------------------


	note: all the notes on the E, and A string are slapped, and all the notes in the D, and G string are plucked.
	

	Ending
	
	E---------3--------------------------3------------
	A----3---------3---------3----3-3-3-----3----/1---
	D-------------------2-----------------------------
	G-------------------------------------------------


	Thats it!!!
Comments