Molotov - No Manches Mi Vida Chords & Tabs

 

No Manches Mi Vida Chords & Tabs

Molotov Chords & Tabs

Version: 2 Type: Tab 0 ratings
1 star 2 stars 3 stars 4 stars 5 stars
comments

No Manches Mi Vida Tab

Molotov - No Manches Mi Vida (Apocalypshit '99)

 from:  Peter Propper
        kgbsk@hotmail.com

Now, this is a very simple song to play with very rare and easy to figure out variations.
The only problem that I have been having with it is figuring out the phaser/flanger style
effect which is used on riff1. Please  contact me with any updates or suggestions, and any
other molotov songs: the tabs are hard to find and I'm not a mexican guitar style player.

standard tuning: EADGBE

Riff1 (opening riff)

(repeat)
----------------------------------?---------------------------|
----------------------------------?---------------------------|
----------------------------------?---------------------------|
----2------2------2------2------2-?-------2------2------2-----|
----------------------------------?----0----0-0----0-0----0-0-|
-2----2-2----2-2----2-2----2-2----?---------------------------|


--------------------------------------------------------------|
--------------------------------------------------------------|
--------------------------------------------------------------|
2------2----4------4------4------4------4---------------------|
--0-0----2----2-2----2-2----2-2----2-2------------------------|
--------------------------------------------------------------|

[ Tab from: http://www.guitartabs.cc/tabs/m/molotov/no_manches_mi_vida_tab_ver_2.html ]
Riff2 (second guitar plaing w/ riff1)

    ~~~~ P.M.~~~~
----?------------?--------------------------------------------|
--------------------------------------------------------------|
--------------------------------------------------------------|
--5--222222-2-2-22--------------------------------------------|
--5--222222-0-0-00--------------------------------------------|
--3--000000-0-0-00--------------------------------------------|

"tifi tofo pufu tofo pafa kofo........"

Riff3

--------------------------------------------------------------|
--------------------------------------------------------------|
--------------------------------------------------------------|
--------7--------------9--------------------------------------|
--------7-(let ring)---9-(let ring)---------------------------|
--------5--------------7--------------------------------------|

                          "no manches mi vida!"


Voil? - I think I explained it way too well!

--------------------------------------------------------------|
--------------------------------------------------------------|
---------------ANOTHER GREAT TAB BY KGB@SK--------------------|
--------------------------------------------------------------|
--------------------------------------------------------------|
--------------------------------------------------------------|
Comments