Molotov - Matate Tete Chords & Tabs

 

Matate Tete Chords & Tabs

Molotov Chords & Tabs

Version: 1 Type: Tab 0 ratings
1 star 2 stars 3 stars 4 stars 5 stars
comments

Matate Tete Tab

e|--------------------------------
B|--------------------------------
G|--------------------------------
D|--------------------------------
A|--------------------------------
E|-5555-5-5/22-2-2-2\55555\8888/77

(CHORUS)
THIS IS THE PART WHEN HE SAYS " MATATE TETE QUE TE MATES TETE"
e|---------------------------------------------
B|---------------------------------------------
G|---------------------------------------------
D|---------------------------------------------
A|-7777-7-7/44-4-4-4\77777\10101010/99-PLAY THIS TWICE
E|-5555-5-5/22-2-2-2\55555\8-8-8-8-/77---------
[ Tab from: http://www.guitartabs.cc/tabs/m/molotov/matate_tete_tab.html ]
PRE CHORUS
e|-----------------------------------------------
B|-----------------------------------------------
G|-----------------------------------------------
D|------------------------44/////////////////9---
A|----------------------44-----------------------
E|4--24-24-2450-4-24-244-------------------------

e|-----------------------------------------------
B|-----------------------------------------------
G|-----------------------------------------------
D|-----------------------------------------------
A|-----------------------------------------------
E|4--24-24-2450-4----2450-4-X2--24-X7-2450-4-----

e|------------------------------------------------------
B|-----------------------------------------------------
G|------------------------------------------------------
D|-----------------------------------------------------
A|------------------------------------------------------
E|-4--24-24-24-24-24-24-2450-4-24-24-24-24-24-24-2450-4

THE PARTS THROUGHOUT THE SONG ARE PRETTY SIMPLE TO FIGURE OUT
SO IF YOU DON'T LIKE THE WAY I PLAY IT, FIGURE IT OUT YOURSELF.
WELL THERE IT IS PLAIN AND SIMPLE.  LATER
Comments