Molotov - Funky Cold Medina Chords & Tabs

 

Funky Cold Medina Chords & Tabs

Molotov Chords & Tabs

Version: 1 Type: Tab 0 ratings
1 star 2 stars 3 stars 4 stars 5 stars
comments

Funky Cold Medina Tab

#--------------------------------Guitar Tab------------------------------------#
#                       Molotov - Funky cold medina                            #
#                            Tabbed By XaViMei                                 #
#                           XaViMei@hotmail.com                                #
#------------------------------------------------------------------------------#



1rst Verse

e:-----------------------|----------------------------|
B:-----------------------|----------------------------|
G:-------------------4---|---------------66-----------|
D:---6---6---6---4---4---|---6---6---6---66---4---6---|
A:---6---6---6---4---2---|---6---6---6---44---4---6---|
E:---4---4---4---2-------|---4---4---4--------2---4---|

e:------------------------------|(0:17)
B:------------------------------|
G:-----------------66-----------|
D:---6---66---66---66---4---6---|
A:---6---66---66---44---4---6---|
E:---4---44---44--------2---4---|
  

Next verse (0:26)

e:-----|(x4) then   e:--------------|
B:-----|            B:--------------|
G:-----|            G:--66----------|
D:--6--|            D:--66---4---6--|
A:--6--|            A:--44---4---6--|
E:--4--|            E:-------2---4--|


Bridge
[ Tab from: http://www.guitartabs.cc/tabs/m/molotov/funky_cold_medina_tab.html ]
e:--------------------------|-------------------------------|(0:58)
B:--------------------------|-------------------------------|
G:----------------------4---|------------------66-----------|
D:---6---66---66---64---4---|---66---66---66---66---4---6---|
A:---6---66---66---64---2---|---66---66---66---44---4---6---|
E:---4---44---44---42-------|---44---44---44--------2---4---|

(Verse)


Next Bridge

e:--------------------------|-----------------------|(1:48)
B:--------------------------|-----------------------|
G:----------------------4---|------------------66---|
D:---6---66---66---64---4---|---66---66---66---66---|
A:---6---66---66---64---2---|---66---66---66---44---|
E:---4---44---44---42-------|---44---44---44--------|


Last verse

e:---------------------|(2:07) & (2:15)
B:---------------------|
G:--------11/12--------|
D:---10---11/12---10---|
A:---10---10/11---10---|
E:---9------------9----|
  
(Last Bridge)


Outro

e:------------------------|----------------------------|(2:37)
B:------------------------|----------------------------|
G:--------------------4---|---------------66-----------|
D:---6*--6*--6*--44---4---|---6*--6*--6*--66---4---6---|
A:---6---6---6---44---2---|---6---6---6---44---4---6---|
E:---4---4---4---62-------|---4---4---4--------2---4---|

* fast palm muted


Comments