Moloko - The Time Is Now Chords & Tabs

 

The Time Is Now Chords & Tabs

Moloko Chords & Tabs

Version: 1 Type: Tab 0 ratings
1 star 2 stars 3 stars 4 stars 5 stars
comments

The Time Is Now Tab

   
Artist: Moloko
Title: The Time Is Now
Album: Things To Make And Do
transcribed by: teddy   teddypeak@wp.pl


INTRO AND BASS RIFF:
---------------------
E|---------------------|-------------------------|
B|---------------------|-------------------------|
G|---------------0--2--|-------------------0--2--|
D|--0-0-0--2--3--------|--------0-0--2--3--------|
A|---------------------|--0--2-------------------|
E|---------------------|-------------------------|

E|---------------------------|---------------------------|
B|---------------------------|---------------------------|
G|---------------------0--2--|---------------------------|
D|--------0-0-0--2--3--------|---------------------------|
A|--0--2---------------------|--0--2---------------------|
E|---------------------------|--------1-1-1-1-3-3-3-3-3--|

INTRO:	d, e, a
        d, e, a
        d, e, a
        F, G


d
You're my last breathe
e        a                d        e   a
You're a breathe of fresh air to me
d              e
Hi, I'm empty
a              d           e   a
So tell me you care for me
[ Tab from: http://www.guitartabs.cc/tabs/m/moloko/the_time_is_now_tab.html ]
d
You're the first thing
e       a          d          e   a
And the last thing on my mind 
d              e     a
In your arms I feel 
F      G
Sunshine 

On a promise 
A day dream yet to come 
Time is upon us 
Oh but the night is young 

Flowers blossom 
In the winter time 
In your arms I feel 
Sunshine 

        d                         e      F   e
 	Give up yourself unto the moment 
        d           e   F   e
	The time is now 
        d                         e      F   e
	Give up yourself unto the moment
        F               G
	Let's make this moment last 


You may find yourself
Out on a limb for me
Could you expect it as 
A part of your destiny 

I give all I have
But it's not enough
And my patience are shot
So I'm calling your bluff 

CHORUS (x2)

And we gave it time 
All eyes are on the clock
But time takes too much time 
Please make the waiting stop 

And the atmosphere is charged
In you I trust
And I feel no fear as I
Do as I must

CHORUS

Tempted by faith 
And I won't hesitate 
The time is now 
Let’s make this moment last (the night is young)


d, e, F, e 
d           e   F   e
The time is now 
d, e, F, e
F               G
Let's make this moment last

CHORUS

   EADGBe
d  XX0231
e  022000
a  X02210
F  133211
G  320033

transcribed by: teddy   teddypeak@wp.pl
Comments