Moloko - The Time Is Now Chords & Tabs

 

The Time Is Now Chords & Tabs

Moloko Chords & Tabs

Version: 3 Type: Bass Tab 0 ratings
1 star 2 stars 3 stars 4 stars 5 stars
comments

The Time Is Now Bass Tab

Moloko - The Time Is Now
Tabbed By Matt Langdale (m_langdale@talk21.com)


[ Tab from: http://www.guitartabs.cc/tabs/m/moloko/the_time_is_now_btab_ver_3.html ]
G---||-------------2---------------------2-4---------||
D---||--00-0-2-3-5-----------0x-0x-2-3-5-------------||
A---||-----------------------------------------------||
E---||----------------0--5--------------------0--5---||



G---||-----------------------------------------------||
D---||--3----3----3----3----5----5----5--------------||
A---||-----------------------------------------------||
E---||----1----1----1----1----3----3-----------------||
Comments