Molly Hatchet - Fall Of The Peacemakers Chords & Tabs

 

Fall Of The Peacemakers Chords & Tabs

Molly Hatchet Chords & Tabs

Version: 1 Type: Tab 2 ratings
1 star 2 stars 3 stars 4 stars 5 stars
comments

Fall Of The Peacemakers Tab

   
E----------------------------------------------------------------0—3-1-3--------------------
B--------------------------------------------------------0-1-3-------------3-1-0-1-0--------
G------------2-0-2------------------2-0-2--------0-2---------------------------------0-2---
D-------------------0-2---------------------0-2-3---------------------------------------------
A-3-2—0----------------3-2----0------------------------------------------------------------
E------3------------------------3---------------------------------------------------------------

E----------------------------------------------------------------0—3-1-3--------------------
B--------------------------------------------------------0-1-3-------------3-1-0-1-0--------
G------------2-0-2------------------2-0-2--------0-2---------------------------------0-2---
D-------------------0-2---------------------0-2-3---------------------------------------------
A-3-2—0----------------3-2----0------------------------------------------------------------
E------3------------------------3---------------------------------------------------------------

Solo in Am pentatonic, add b5th if necessary.
[ Tab from: http://www.guitartabs.cc/tabs/m/molly_hatchet/fall_of_the_peacemakers_tab.html ]
  Am                                C
A king without a sword, a land without a king
 G                                Am
Truth without a voice, one song left to sing
G                Am
One song to sing
Am                                      C
A wise man told me there’s something you should know
G                                    Am
The way to judge a man is to look into his soul
G                             Am
And you’ll soon see everything
C                                        G
A voice from the past cried give peace a chance
Am
He paid our price now he’s free at last
C     G            Am
And imagine, we called him a dreamer
C                        G
How many times must good men die
Am
How many tears must our children cry
G                                  Am
Till we suffer no more sadness
G            Am         G           Am
Stop the madness, stop the madness


Solo in Am pentatonic, add b5th if necessary.

Am                        C
Is ashes are ashes and dust is dust
G                                  Am
And our journey ends then return we must
G                             Am
To the sands of our shores
Am                            C
White doves will fly, peace to all
G                        Am
But tell me why do our peacemakers fall
G                      Am
Must we bury any more
C                                  G
A hush from the crowd as the horse rode by
Am
A black lace veil hid the tears from her eyes
C        G                 Am
And we all wept in silence
C                         G
How many times must good men die
Am
How many tears will our children cry
G                                 Am
Till we suffer no more sadness
G          Am           G                  Am……         Am C G Em Am…..
Stop the madness, stop all the madness.



Solo in Am pentatonic, add b5th if necessary, over the chord progression above.




Am pentatonic with b5:

E-17-15---------------------------------------------------------
B-----17-16-15-----------------------------------------------
G-------------14-12------------------------------------------
D---------------------14-13-12-10-----------------------
A-------------------------------------12-10---------------
E---------------------------------------------12-11-10-8-5---

Just improvise within that for the solos. You know what type of sound to go for if you’ve heard the song.
Comments