Molly - Wanna Be Chords & Tabs

 

Wanna Be Chords & Tabs

Molly Chords & Tabs

Version: 2 Type: Tab 0 ratings
1 star 2 stars 3 stars 4 stars 5 stars
comments

Wanna Be Tab

   
This is a local BIG band in GR, Michigan. They have some songs on
97.9 WGRD. They kick major.

Title: Molly - Wanna Be
Tabbed by: Dan Wall!
Tuning: Standard
Album: Sex Sells i think

s = slide

riff A
---------[2TIMES]-------|--[5TIMES]-------------------------------|
------------------------|-----------------------------------------|
----------7-7-S-9-S-12--|-----------------------------------------|
---10-10--7-7-S-9-S-12--|--3-3-3----------------------------------|
---10-10--5-5-S-7-S-10--|--3-3------------------------------------|
---8--8-----------------|--1-1------------------------------------|


---------[2TIMES]-------|--[5TIMES]-------------------------------|
------------------------|-----------------------------------------|
----------7-7-S-9-S-12--|-----------------------------------------|
---10-10--7-7-S-9-S-12--|--3-3-3----------------------------------|
---10-10--5-5-S-7-S-10--|--3-3------------------------------------|
---8--8-----------------|--1-1------------------------------------|


riff B
-[16TIMES]-|-[16TIMES]-|------------------------------------------|
-----------|-----------|------------------------------------------|
-----------|---10------|------------------------------------------|
----10-----|---10------|------------------------------------------|
----10-----|---8-------|------------------------------------------|
----8------|-----------|------------------------------------------|
   p.m.       p.m.

-[16TIMES]-|-[16TIMES]-|------------------------------------------|
-----------|-----------|------------------------------------------|
-----------|---10------|------------------------------------------|
----10-----|---10------|------------------------------------------|
----10-----|---8-------|------------------------------------------|
----8------|-----------|------------------------------------------|
   p.m.       p.m.


riff A
---------[2TIMES]-------|--[5TIMES]-------------------------------|
------------------------|-----------------------------------------|
----------7-7-S-9-S-12--|-----------------------------------------|
---10-10--7-7-S-9-S-12--|--3-3-3----------------------------------|
---10-10--5-5-S-7-S-10--|--3-3------------------------------------|
---8--8-----------------|--1-1------------------------------------|

riff B
-[16TIMES]-|-[16TIMES]-|------------------------------------------|
-----------|-----------|------------------------------------------|
-----------|---10------|------------------------------------------|
----10-----|---10------|------------------------------------------|
----10-----|---8-------|------------------------------------------|
----8------|-----------|------------------------------------------|
   p.m.       p.m.

riff B
-[16TIMES]-|-[16TIMES]-|------------------------------------------|
-----------|-----------|------------------------------------------|
-----------|---10------|------------------------------------------|
----10-----|---10------|------------------------------------------|
----10-----|---8-------|------------------------------------------|
----8------|-----------|------------------------------------------|
   p.m.       p.m.

------------------------------------------------------------------|
------------------------------------------------------------------|
------------------------------------------------------------------|
---12---12-12-12-12-12-12-12---12-12---12-12-12-12----------------|
---12---12-12-12-12-12-12-12---12-12---12-12-12-12----------------|
---10---10-10-10-10-10-10-10---10-10---10-10-10-10----------------|


-------------------------------------------------------------------|
-------------------------------------------------------------------|
---12---12-12-12-12-12-12---x-x-x-7-S-9-S-7-4-S-5------------------|
---12---12-12-12-12-12-12---x-x-x-7-S-9-S-7-4-S-5------------------|
---10---10-10-10-10-10-10---x-x-x-5-S-7-S-5-2-S-3------------------|
-------------------------------------------------------------------|

-[16TIMES]-|-[16TIMES]-|
-----------|-----------|
-----------|---10------|
----10-----|---10------|  <___
----10-----|---8-------|      \\
----8------|-----------|       \\
				NOT PALM MUTED!
-[16TIMES]-|-[16TIMES]-|       //
-----------|-----------|  <___//
-----------|---10------|
----10-----|---10------|
----10-----|---8-------|
----8------|-----------|


------------------------------------------------------------------|
------------------------------------------------------------------|
-----------------------------------99-----------------------------|
---7---5---10-----------7---5---77-99-9999-10101010-14141414------|
---7---5---10-----------7---5---77-79-9999-10101010-14141414------|
---5---3---8------------5---3---55----7777-8-8-8-8--12121212------|
      |   |   |           |   |
   8x |8x |16x|        8x |8x |
[ Tab from: http://www.guitartabs.cc/tabs/m/molly/wanna_be_tab_ver_2.html ]
riff B
-[16TIMES]-|-[16TIMES]-|------------------------------------------|
-----------|-----------|------------------------------------------|
-----------|---10------|------------------------------------------|
----10-----|---10------|------------------------------------------|
----10-----|---8-------|------------------------------------------|
----8------|-----------|------------------------------------------|
   p.m.       p.m.

riff B
-[16TIMES]-|-[16TIMES]-|------------------------------------------|
-----------|-----------|------------------------------------------|
-----------|---10------|------------------------------------------|
----10-----|---10------|------------------------------------------|
----10-----|---8-------|------------------------------------------|
----8------|-----------|------------------------------------------|
   p.m.       p.m.

------------------------------------------------------------------|
------------------------------------------------------------------|
------------------------------------------------------------------|
---12---12-12-12-12-12-12-12---12-12---12-12-12-12----------------|
---12---12-12-12-12-12-12-12---12-12---12-12-12-12----------------|
---10---10-10-10-10-10-10-10---10-10---10-10-10-10----------------|


-------------------------------------------------------------------|
-------------------------------------------------------------------|
---12---12-12-12-12-12-12---x-x-x-7-S-9-S-7-4-S-5------------------|
---12---12-12-12-12-12-12---x-x-x-7-S-9-S-7-4-S-5------------------|
---10---10-10-10-10-10-10---x-x-x-5-S-7-S-5-2-S-3------------------|
-------------------------------------------------------------------|


-[16TIMES]-|-[16TIMES]-|
-----------|-----------|
-----------|---10------|
----10-----|---10------|  <___
----10-----|---8-------|      \\
----8------|-----------|       \\
				NOT PALM MUTED!
-[16TIMES]-|-[16TIMES]-|       //
-----------|-----------|  <___//
-----------|---10------|
----10-----|---10------|
----10-----|---8-------|
----8------|-----------|

------------------------------------------------------------------|
------------------------------------------------------------------|
-----------------------------------99-----------------------------|
---7---5---10-----------7---5---77-99-9999-10101010-14141414------|
---7---5---10-----------7---5---77-79-9999-10101010-14141414------|
---5---3---8------------5---3---55----7777-8-8-8-8--12121212------|
      |   |   |           |   |
   8x |8x |16x|        8x |8x |

------------------------------------------------------------------|
------------------------------------------------------------------|
--------------------------------10--------------------------------|
---10-10---------------3----10--10--------------------------------|
---8--8----------------3----10--8---------------------------------|
---8--8----------------1----8-------------------------------------|
		      16x  16x  16x

------------------------------------------------------------------|
------------------------------------------------------------------|
-----------------------------------99-----------------------------|
---7---5---10-----------7---5---77-99-9999-10101010-14141414------|
---7---5---10-----------7---5---77-79-9999-10101010-14141414------|
---5---3---8------------5---3---55----7777-8-8-8-8--12121212------|
      |   |   |           |   |
   8x |8x |16x|        8x |8x |

riff A
---------[2TIMES]-------|--let ring-------------------------------|
------------------------|-----------------------------------------|
----------7-7-S-9-S-12--|-----------------------------------------|
---10-10--7-7-S-9-S-12--|--3--------------------------------------|
---10-10--5-5-S-7-S-10--|--3--------------------------------------|
---8--8-----------------|--1--------------------------------------|

LYRICS!!
~~~~~~~~~~~

When you see me in the bathroom combing back my hair
you ask me something simple doesnt matter tho cuz i dont hear ya
when you catch me in the mirror playing casinova
you smile to yourself just walk away and shake your head and.
back at school the teachers asking for a show of hands
to be miss joan of arc its for a girl it doesnt matter
all the kids they laugh and point and think your a little crazy
it doesnt matter though cuz your starstruck yea youre amazing
im in denial and now what the fact is...
youll never be a movie star no perfect face no shitty car
youll never be a movie star no perfect face no shitty car
even now ur in denial you know what the fact is
it will haunt u thru the spaces even tho u dont like what u hear
pack your bags ya pack em up i think its time to get out
well i dont mind cuz u dont know what im all about
i dont care becuz im moving out to california
thats where the girls r where the stars r hey ya theyll adore ya
your in denial and know what the fact is
youll never be a movie star no perfect face no shitty car
youll never be a movie star no perfect face no shitty car
even now ur in denial you know what the fact is
it will haunt u thru the spaces even tho u dont like what u hear
youll never be a movie star
youll never be a movie star no perfect face no shitty car
youll never be a movie star no perfect face no shitty car
even now ur in denial you know what the fact is
it will haunt u thru the spaces even tho u dont like what u hear

THE END
Comments