Molesight - My Best Friends Hat Chords & Tabs

 

My Best Friends Hat Chords & Tabs

Molesight Chords & Tabs

Version: 1 Type: Tab 0 ratings
1 star 2 stars 3 stars 4 stars 5 stars
comments

My Best Friends Hat Tab

My Best Friends Hat intro          ,Written By Liam Owen 

Molesight                 guitar one is underdriven

Guitar 1

8-8-8-8-8-8-8-8-8-8-8-8-8-8-8-8-8-8-8-8-8-8-8-8-8-8-8-8-8-8-8-8
7-7-7-7-7-7-7-7-7-7-7-7-7-7-7-7-8-8-8-8-8-8-8-8-8-8-8-8-8-8-8-8
7-7-7-7-7-7-7-7-7-7-7-7-7-7-7-7-7-7-7-7-7-7-7-7-7-7-7-7-7-7-7-7
---------------------------------------------------------------
---------------------------------------------------------------
---------------------------------------------------------------


8-8-8-8-8-8-8-8-8-8-8-8-8-8-8-8-8-8-8-8-8-8-8-8-8-8-8-8-8-8-8-8
7-7-7-7-7-7-7-7-7-7-7-7-7-7-7-7-8-8-8-8-8-8-8-8-8-8-8-8-8-8-8-8
7-7-7-7-7-7-7-7-7-7-7-7-7-7-7-7-8-8-8-8-8-8-8-8-8-8-8-8-8-8-8-8  x4
---------------------------------------------------------------
---------------------------------------------------------------
---------------------------------------------------------------
Guitar 1 plays this until the bass comes in  

Guitar 2
[ Tab from: http://www.guitartabs.cc/tabs/m/molesight/my_best_friends_hat_tab.html ]
1-1-1-1-1-1-1-1-1-1-1-1-6-6-6-6-6-6-6-6-6-6-6-6-4-4-4-4-4-4-4-4-4-4-4-4
1-1-1-1-1-1-1-1-1-1-1-1-6-6-6-6-6-6-6-6-6-6-6-6-4-4-4-4-4-4-4-4-4-4-4-4
2-2-2-2-2-2-2-2-2-2-2-2-7-7-7-7-7-7-7-7-7-7-7-7-5-5-5-5-5-5-5-5-5-5-5-5
1-1-1-1-1-1-1-1-1-1-1-1-6-6-6-6-6-6-6-6-6-6-6-6-4-4-4-4-4-4-4-4-4-4-4-4
1-1-1-1-1-1-1-1-1-1-1-1-6-6-6-6-6-6-6-6-6-6-6-6-4-4-4-4-4-4-4-4-4-4-4-4
1-1-1-1-1-1-1-1-1-1-1-1-6-6-6-6-6-6-6-6-6-6-6-6-4-4-4-4-4-4-4-4-4-4-4-4


8-8-8-8-8-8-8-8-8-8-8-8
8-8-8-8-8-8-8-8-8-8-8-8
9-9-9-9-9-9-9-9-9-9-9-9   x2
8-8-8-8-8-8-8-8-8-8-8-8
8-8-8-8-8-8-8-8-8-8-8-8
8-8-8-8-8-8-8-8-8-8-8-8

Guitar 1
-------------------------------------
-------------------------------------
-------------------------------------
5p---5p---5p---5p---5p---5p---5p---5p         p=palm mute
4p---4p---4p---4p---4p---4p---4p---4p         ^=strum upwards
5p---5p---5p---5p---5p---5p---5p---5p
^    ^    ^    ^    ^    ^    ^    ^
Guitar 2

5-5--7-7--2-2--1-1-----1-1--2-2--6-6--8-8----15/1  
4-4--6-6--1-1--1-1-6-6-1-1--0-0--6-6--8-8----15/1
4-4--6-6--1-1--1-1-----1-1--3-3--6-6--8-8----15/1
----------------------------0-0------------------
----------------------------4-4------------------
----------------------------0-0------------------
Comments