Moldy Peaches - Little Bunny Foo Foo Chords & Tabs

 

Little Bunny Foo Foo Chords & Tabs

Moldy Peaches Chords & Tabs

Version: 2 Type: Tab 0 ratings
1 star 2 stars 3 stars 4 stars 5 stars
comments

Little Bunny Foo Foo Tab

“Little Bunny Foo-Foo”
The Moldy Peaches

E------------------------------------------------------------
B------------------------------------------------------------
G-------------------------------7----------------9-----------
D-------------7-----------------7----------------9-----------
A-------------7---------5-------5---------7-----7------------
E-----5-------5----------------------------------------------

[ Tab from: http://www.guitartabs.cc/tabs/m/moldy_peaches/little_bunny_foo_foo_tab_ver_2.html ]
E-------------------------------------------------------------------
B-------------------------------------------------------------------
G----------7--------------------------------7--------9-9-9-9-9-9-9--
D----------7----------------7---------------7--------9-9-9-9-9-9-9--
A-----5----5----------------7---------5-----5--------7-7-7-7-7-7-7--
E---------------------5-----5---------------------------------------

(Just repeat the pattern throughout the song)


Basically this is an easy song to play…But it still kicks ass. If you have any questions, comments or anything….. Email me at: Jlennon69@hotmail.com

Hey…If anyone has recordings of live Moldy Peaches shows or anything...e-mail me. I've been trying to get a hold of some. Thanks.

Enjoy the tab.

JLennon69@hotmail.com
Comments