Mokoma - Kasvot Kohti Itaa Chords & Tabs

 

Kasvot Kohti Itaa Chords & Tabs

Mokoma Chords & Tabs

Version: 1 Type: Tab 0 ratings
1 star 2 stars 3 stars 4 stars 5 stars
comments

Kasvot Kohti Itaa Tab

Mokoma - Kasvot kothi itää

Tuning drop D

Sorry, only for one guitar, couldn't figure out the other part..

Verse riff/ intro part 1
E||--------------------|--------------------|
B||--------------------|--------------------|
G||--------------------|--------------------|
D||--5--------4--------|--1-----------------|
A||--5--------4--------|--1-----------------|
D||--5--------4--------|--1-----------------|



Occasionally play this as the second bar

E||--------------------|--------------------|
B||--------------------|--------------------|
G||--------------------|--------------------|
D||--5--------4--------|--1-----1-----------|
A||--5--------4--------|--1--1--1--1--1--1--|
D||--5--------4--------|--1--1--1--1--1--1--|

Main riff(all triplets)

|---------------------------------------|----------------------------------|
|---------------------------------------|----------------------------------|
|---------------------------------------|----------------------------------|
|------------8--------7-----------------|-----------------------------3----|
|------------------------------8--------|--5--------8--------5--------3----|
|---5--5--5-----5--5-----5--5-----5--5--|-----5--5-----5--5-----5--5--3----|

[ Tab from: http://www.guitartabs.cc/tabs/m/mokoma/kasvot_kohti_itaa_tab.html ]
                                                                          
--------------------------------------|-----------------------------------|
--------------------------------------|-----------------------------------|
--------------------------------------|-----------------------------------|
--------------------------------------|-----------------------------8-----|
-----------3h-5-----7h-8-----3h-5-----|-----------3h-5--------------8-----|
--0--0--0--------0--------0--------0--|--0--0-0-0-------0--0--0--0--8-----|


Chorus riff

-------------------|-------------------|-------------------|-------------------|
-------------------|-------------------|-------------------|-------------------|
-------------------|-------------------|-------------------|-------------------|
--5----------------|--3----------------|--3----------------|--1----------------|
--5----------------|--1----------------|--3----------------|--1----------------|
--5----------------|--3----------------|--3----------------|--1----------------|



Outro fill

---------------------|----------------------|
---------------------|----------------------|
---------------------|----------------------|
---------------------|----------------------|
--5------8------5----|--3----1----0---------|
---------------------|-----------------5----|

That's it, not a really hard song but fun to play.
Listen to the song for timing and order.
Comments