Mojofly - Mata Chords & Tabs

 

Mata Chords & Tabs

Mojofly Chords & Tabs

Version: 1 Type: Bass Tab 0 ratings
1 star 2 stars 3 stars 4 stars 5 stars
comments

Mata Bass Tab

Standard tuning:EADG
from SMCB: 
Tabbed by:-TLVC-
    Emerson        bass  
    Sept           lead
    Jorge          rhythym
    William        drums
    Najee          piano/violin/guitar
    Patricia       vocals
    Chanel         vocals
    Melissa        stock...haha...vocals din 
    
OTHER MEMBERS:allen derrick inoncillo------ moral supporter!!
              algene agustin----------------ala lang... magaling magbass
              on on? -----------------------habulin ng cute girls!!!
              
*Kamusta na............
(4x)
|--------------|----------------|------------------|-------------------|
|--------------|----------------|------------------|-------------------|
|--------------|------5---------|---0-------------0|-2-3---------------|   
|--------3-----|----------------|------------------|-------------------|


*Wag ng paikutin ang isa't isa
|--------------|-----------------|------------------|-------------------|
|--------------|-----------------|------------------|-------------------|
|--------------|---------3-------|------------------|----------5/7-\5---|
|-------0------|-----------------|---------3--------|-------------------|
[ Tab from: http://www.guitartabs.cc/tabs/m/mojofly/mata_btab.html ]
*Lahat ng bagay ay malinaw na"
|--------------|-----------------|------------------|-------------------|
|--------------|-----------------|------------------|-------------------|
|--------------|------3----------|------------------|5/7-\5--7--10--9-7-|
|-------0------|-----------------|--------3---------|-------------------|

*Di na rin kailangan pagpilitan pa
|--------------|-----------------|------------------|
|--------------|-----------------|------------------|
|--------3-----|-----------------|-----5/7--\5------|
|--------------|-----3-----------|------------------|



*Di mo na kinakailangan pang magsalita
|--------------|-----------------|------------------|-------------------|
|--------------|-----------------|------------------|-------------------|
|--------------|--------3--------|-555555---77----99---1010----12-----10|
|------0-------|-----------------|------------------|-------------------|

*Nakita ko na lahat dito ....................
|----------------|-----------------|-----------------|-------------------|
|----------------|-----------------|-----------------|-------------------|
|10-10-10-10-10-7|-5-5--5----------|--0-0--0-------0-|-2-3---------------|
|----------------|-----------------|-----------------|-------------------|


*END!



Iyon yung pagkakadinig ko.....First tab ko palang  to.
Kayo na bahalang magtama nung mali at magdagdag nung kulang.
hi nga pala sa mga classmates ko....('',)


speacial thanks to:

expressions---internet cafe!
elmer suba----for our haircut
bernardo family-- for our instruments
aling nelys at em's for our lunch tsaka ung katabi ng menshoppe!!
at xempre ung nasa taas  hehehe


.
Comments