Moist - Sunday Comes Chords & Tabs

 

Sunday Comes Chords & Tabs

Moist Chords & Tabs

Version: 1 Type: Tab 0 ratings
1 star 2 stars 3 stars 4 stars 5 stars
comments

Sunday Comes Tab

   
Sunday Comes- Moist
CD: Machine Punch Through (singles collection)
Tabber: Mitchell (Mitchell_J@hotmail.com)
Tuning: Standard
^= slight bend   h= hammer on

This is truly one of Moist's BEST song's they've ever done, and it isn't even
on any of their studio albums! But anyway, here's the tab- I didn't expect 
anybody else to try and tab it, so I thought I'd give it a shot!

Intro/Outro/Verse:
e ----------------------------|---------------------------------
B ----------------------------|---------------------------------
G ----7-----7------7-----7----|----4-----4---5-----4-----4---5--
D -5----5-5---5--4---4-4---4--|-3----3-3---3----2----2-2---2----
A ----------------------------|---------------------------------
E ----------------------------|---------------------------------

Pre-chorus: C  D  Em  Asus

Chorus: listen for the chord changes: G   D   F   E   Am   D
[ Tab from: http://www.guitartabs.cc/tabs/m/moist/sunday_comes_tab.html ]
Solo:
e -------------------------------------------------------------^---^---^---
B -------------------------------------------------------------12--12--12--
G -9-9-9-9-9---------------------------------------------------------------
D ------------11-11-11-11-11--10-10-10-10-10--12-12-12-12-12---------------
A -------------------------------------------------------------------------
E -------------------------------------------------------------------------

e --------------------------------------------------------------
B -12-10-----10------------8------------------------------------
G --------12----12--9--7h9----7h9-9-9-9--7-7h9-9-9-9--7---------
D -------------------------------------------------------9--7~--
A --------------------------------------------------------------
E --------------------------------------------------------------

Chords: C   D   Em  Asus  G   F   E   Am
e	0   2   0    0    3   1   0   0
B	1   3   0    0    3   1   0   1
G	0   2   0    2    0   2   1   2
D	2   0   2    2    0   3   2   2
A	3   x   2    0    2   1   2   0
E	x   x   0    x    3   1   0   x

Tab originally from: http://diehardtabs.tripod.com
Comments