Moist - Silver Chords & Tabs

 

Silver Chords & Tabs

Moist Chords & Tabs

Version: 2 Type: Tab 0 ratings
1 star 2 stars 3 stars 4 stars 5 stars
comments

Silver Tab

   
Song: Silver
Band: Moist
Tabbed by: Johnnie K 

        The song itself wasn't very hard to Tab out, but I had to do it from
memory so if there are a few mistakes please let me know.

The main chords (the ones played after the little riffs) are variations of

A:      x022xx
D Flat: x0020x
G:      x35500  I will call it G.  

The begining and the parts until Dave sings 'Everybody wants, Everybody says...' 
are the same.  to remind you of my symbols, I use '/' as the symbol for slide.

E--------------------------------------------------------------------
B---------------------------------------------------------------------    Repeat the whole thing.
G------------2-----------2-------2-/-5----------                         We'll call this Riff 1
D--2-3-2-0-2-2-3-2-0-0-3-2-0-2-3-2-/-5 ---------
A------------0-----------0--------------0---3----------------------------
E--------------------------------------------------------------------

E----------------------------------------------------------------------
B----------------------------------------------------------------------
G-----------2---------------2----------------------5--------------9-------------------------   Repeat once
D-----------2---------------0----------------------5--------------9-------------------------   We'll call this Riff 2
A-----------0---------------0----------------------3--------------7-------------------------
E----------------------------------------------------------------------
 Everybody wants, Everybody says, Everybody begs..In time

[ Tab from: http://www.guitartabs.cc/tabs/m/moist/silver_tab_ver_2.html ]
For the second verse, repeat Riff 1 and 2 like you did before until the Chorus
starts:

 A
and you will be the first to fall
D flat
every feeling will dissolve
G             B(?)
We are...silver
A
Morphine baby's final breath
D flat
Ever smothered to my breast
G          B(?)
We are Silver

Then there is a piano part that can be played on guitar, it is played before the
verse starts again.

G-----------------14-5-5-5-5----------
D-2-3-5-15-14-5-2-14-5-5-5-5-0-2-3-2

Repeat this all again, afterwards Dave will break out into a high sung part
where Mark plays a basic scale variation.  I have gone through the trouble of
tabbing out the version on the album. The live version is different most of the
time.  There are a few effects in it that I haven't bothered to tab though, I
think it is just a basic wah pedal.

B-15-15-15-15-15-13-13-12-12-10-10-12-12-12-12-13-10-10-8-8-15-15-15-15-13-13-12-12-10-12-12-12-12-13-10--10---10---10---8-8-
G-------------------------------------------------------------------------------------------------------10--10---10---10-------


And then the whole thing repeats until the very end where there is another cool
keyboard riff that can be played on guitar.  This is

D-2-3-2-3-5-5-7-2-3-2-3-2-0----0-2-3----
A----------------------------------3-------------             Repeat this twice,
I think, it varies a bit on the second time, but it isn't hard to figure out.


If anyone knows that chord played over the word 'Silver' please edit it in. 
This is all I can help you with for this song.

I was lost in between...have you been....have you been...have you been Silver???
Comments