Moist - Push Chords & Tabs

 

Push Chords & Tabs

Moist Chords & Tabs

Version: 2 Type: Tab 0 ratings
1 star 2 stars 3 stars 4 stars 5 stars
comments

Push Tab

   
Song: Push
Artists: Moist
Words and music by David Usher & Moist

Off the album "Silver"

Intro: with distortion
    B            A                G            A
E|-----------------------------|------------------------------|
B|-----0----0-0-----0---0--0---|--0--0----0-0--0--0---0-------|
G|--4--4-4--4-4--4--4-4-4--4---|--4--4-4--4-4--4--4---2-2h4---| x4
D|--4----4-------2----2--------|--0----0-------2----2-------2-|
A|--2----2-------0----0--------|--x----x-------0----0---------|
E|-----------------------------|--3----3----------------------|

Verse 1:

    B            A                G            A
   P.M   P.M     P.M  P.M         P.M  P.M     P.M  P.M-------|
E|-----------------------------|------------------------------|
B|-----0----0-0-----0---0--0---|--0--0----0-0--0--0---0-------|
G|--4--4-4--4-4--4--4-4-4--4---|--4--4-4--4-4--4--4---2-2h4---|
D|--4----4-------2----2--------|--0----0-------2----2-------2-|
A|--2----2-------0----0--------|--x----x-------0----0---------|
E|-----------------------------|--3----3----------------------|
   A little  bit  more  then I      ever      want-ed

    B            A                G            A
   P.M   P.M     P.M  P.M         P.M  P.M     P.M  P.M-------|
E|-----------------------------|------------------------------|
B|-----0----0-0-----0---0--0---|--0--0----0-0--0--0---0-------|
G|--4--4-4--4-4--4--4-4-4--4---|--4--4-4--4-4--4--4---2-2h4---|
D|--4----4-------2----2--------|--0----0-------2----2-------2-|
A|--2----2-------0----0--------|--x----x-------0----0---------|
E|-----------------------------|--3----3----------------------|
   A little bit more then I could    ever     say!

    B            A                G            A
   P.M   P.M     P.M  P.M         P.M  P.M     P.M  P.M-------|
E|-----------------------------|------------------------------|
B|-----0----0-0-----0---0--0---|--0--0----0-0--0--0---0-----0-|
G|--4--4-4--4-4--4--4-4-4--4---|--4--4-4--4-4--4--4---2-2h4---|
D|--4----4-------2----2--------|--0----0-------2----2---------|
A|--2----2-------0----0--------|--x----x-------0----0---------|
E|-----------------------------|--3----3----------------------|
   Did  you  really think that     I've      forgotten

    B            A                G            A
   P.M   P.M     P.M  P.M         P.M  P.M     P.M  P.M-------|
E|-----------------------------|------------------------------|
B|-----0----0-0-----0---0--0---|--0--0----0-0--0--0---0-----0-|
G|--4--4-4--4-4--4--4-4-4--4---|--4--4-4--4-4--4--4---2-2h4---|
D|--4----4-------2----2--------|--0----0-------2----2---------|
A|--2----2-------0----0--------|--x----x-------0----0---------|
E|-----------------------------|--3----3----------------------|
  Kicked out the windshield      water coming in fa * de  away

    
E|-----------------------------|------------------------------|
B|-----0---0--0-----0---0------|--2--2----2-2-----2---2-----2-|
G|--4--4-4-4--4--4--4-4-4-4----|--2--2-2--2-2--2--2---2-2---2-|
D|--2----2-------2----2---2----|--2--2-2--2----2--2-2---2-----|
A|--0----0-------0----0---0----|--0--0-0-------0----0---0-----|
E|-----------------------------|------------------------------|
   Fade away, fade aw  *   ay__ ___ hey, hey_______   aw______

Chorus:

   A                              E
E|------------------------------|------------------------------|
B|------------------------------|------------------------------|
G|-2----2--2---2--2---2--2--2---|------------------------------|
D|-2----2--2---2--2---2--2--2---|-2----2--2---2--2---2--2--2---|
A|-0----0--0---0--0---0--0--0---|-2----2--2---2--2---2--2--2---|
E|------------------------------|-0----0--0---0--0---0--0--0---|
  Push  just a little too late   Is this what you want?What you

   G                              A
E|------------------------------|------------------------------|
B|------------------------------|------------------------------|
G|-0----0--0---0--0---0--0--0---|-2----2--2---2--2---2--2--2---|
D|-0----0--0---0--0---0--0--0---|-2----2--2---2--2---2--2--2---|
A|-x----x--x---x--x---x--x--x---|-0----0--0---0--0---0--0--0---|
E|-3----3--3---3--3---3--3--3---|------------------------------|
  need?Is this whatyou wanted me to be? Always love me strap to
                                  (Push just a little too late!)

   E                              F#
E|------------------------------|------------------------------|
B|------------------------------|------------------------------|
G|------------------------------|------------------------------|
D|-2----2--2---2--2---2--2--2---|-4----4--4---4--4---4--4--4---|
A|-2----2--2---2--2---2--2--2---|-4----4--4---4--4---4--4--4---|
E|-0----0--0---0--0---0--0--0---|-2----2--2---2--2---2--2--2---|
  You,  lock  it down  and drive  me through,  oh_____________!

    B            A                G            A
E|-----------------------------|------------------------------|
B|-----0----0-0-----0---0--0---|--0--0----0-0--0--0---0-------|
G|--4--4-4--4-4--4--4-4-4--4---|--4--4-4--4-4--4--4---2-2h4---|
D|--4----4-------2----2--------|--0----0-------2----2-------2-|
A|--2----2-------0----0--------|--x----x-------0----0---------|
E|-----------------------------|--3----3----------------------|

Verse 2:

    B            A                G            A
   P.M   P.M     P.M  P.M         P.M  P.M     P.M  P.M-------|
E|-----------------------------|------------------------------|
B|-----0----0-0-----0---0--0---|--0--0----0-0--0--0---0-------|
G|--4--4-4--4-4--4--4-4-4--4---|--4--4-4--4-4--4--4---2-2h4---|
D|--4----4-------2----2--------|--0----0-------2----2-------2-|
A|--2----2-------0----0--------|--x----x-------0----0---------|
E|-----------------------------|--3----3----------------------|
   I tried to give me then you thought I take more

    B            A                G            A
   P.M   P.M     P.M  P.M         P.M  P.M     P.M  P.M-------|
E|-----------------------------|------------------------------|
B|-----0----0-0-----0---0--0---|--0--0----0-0--0--0---0-------|
G|--4--4-4--4-4--4--4-4-4--4---|--4--4-4--4-4--4--4---2-2h4---|
D|--4----4-------2----2--------|--0----0-------2----2-------2-|
A|--2----2-------0----0--------|--x----x-------0----0---------|
E|-----------------------------|--3----3----------------------|
   Taken more then you could    ever     say!

    B            A                G            A
   P.M   P.M     P.M  P.M         P.M  P.M     P.M  P.M-------|
E|-----------------------------|------------------------------|
B|-----0----0-0-----0---0--0---|--0--0----0-0--0--0---0-----0-|
G|--4--4-4--4-4--4--4-4-4--4---|--4--4-4--4-4--4--4---2-2h4---|
D|--4----4-------2----2--------|--0----0-------2----2---------|
A|--2----2-------0----0--------|--x----x-------0----0---------|
E|-----------------------------|--3----3----------------------|
  Push comes to shove,you kicked me in the head knocked me down

    B            A                G            A
   P.M   P.M     P.M  P.M         P.M  P.M     P.M  P.M-------|
E|-----------------------------|------------------------------|
B|-----0----0-0-----0---0--0---|--0--0----0-0--0--0---0-----0-|
G|--4--4-4--4-4--4--4-4-4--4---|--4--4-4--4-4--4--4---2-2h4---|
D|--4----4-------2----2--------|--0----0-------2----2---------|
A|--2----2-------0----0--------|--x----x-------0----0---------|
E|-----------------------------|--3----3----------------------|
  Kicked out the windshield      water coming in fa * de  away

    
E|-----------------------------|------------------------------|
B|-----0---0--0-----0---0------|--2--2----2-2-----2---2-----2-|
G|--4--4-4-4--4--4--4-4-4-4----|--2--2-2--2-2--2--2---2-2---2-|
D|--2----2-------2----2---2----|--2--2-2--2----2--2-2---2-----|
A|--0----0-------0----0---0----|--0--0-0-------0----0---0-----|
E|-----------------------------|------------------------------|
   Fade away, fade aw  *   ay__ ___ hey, hey_______   aw______

Chorus:
   A                              E
E|------------------------------|------------------------------|
B|------------------------------|------------------------------|
G|-2----2--2---2--2---2--2--2---|------------------------------|
D|-2----2--2---2--2---2--2--2---|-2----2--2---2--2---2--2--2---|
A|-0----0--0---0--0---0--0--0---|-2----2--2---2--2---2--2--2---|
E|------------------------------|-0----0--0---0--0---0--0--0---|
  Push  just a little too late   Is this what you want?What you

   G                              A
E|------------------------------|------------------------------|
B|------------------------------|------------------------------|
G|-0----0--0---0--0---0--0--0---|-2----2--2---2--2---2--2--2---|
D|-0----0--0---0--0---0--0--0---|-2----2--2---2--2---2--2--2---|
A|-x----x--x---x--x---x--x--x---|-0----0--0---0--0---0--0--0---|
E|-3----3--3---3--3---3--3--3---|------------------------------|
  need?Is this whatyou wanted me to be? Always love me strap to
                                  (Push just a little too late!)

   E                              F#
E|------------------------------|------------------------------|
B|------------------------------|------------------------------|
G|------------------------------|------------------------------|
D|-2----2--2---2--2---2--2--2---|-4----4--4---4--4---4--4--4---|
A|-2----2--2---2--2---2--2--2---|-4----4--4---4--4---4--4--4---|
E|-0----0--0---0--0---0--0--0---|-2----2--2---2--2---2--2--2---|
  You,  lock  it down  and drive  me through,  oh_____ NO______!

Guitar solo:



  with wah-wah pedel
E|----------------------------------|----------------------------------|
B|-----5p0---3p0---5p0---3p0---5p0--|---3p0---5p0---3p0---5p0---3p0----|
G|-/4~~----4-----4-----4-----4------|-4-----4-----4-----4-----4-----4--|
D|----------------------------------|----------------------------------|
A|----------------------------------|----------------------------------|
E|----------------------------------|----------------------------------|

E|----------------------------------|----------------------------------|
B|-----5p0---3p0---5p0---3p0---5p0--|---3p0---5p0---3p0---5p0---5-3----|
G|--4------4-----4-----4-----4------|-4-----4-----4-----4-----4-----4\-|
D|----------------------------------|----------------------------------|
A|----------------------------------|----------------------------------|
E|----------------------------------|----------------------------------|

E|-----------10p7-------------------|---------------------------10b12r-|
B|----------------10-----10-8---8~--|----------------------------------|
G|-/9b11/\/\---------9~~~-----9-----|-9p7-9~~~~----------8---10--------|
D|----------------------------------|--------------7~-9----9-----------|
A|----------------------------------|----------7h9---------------------|
E|----------------------------------|----------------------------------|

E|----------------------------------|--------------15\-------------------|
B|-15-----13--13p12p10--------------|--14p12-------15\-------------15----|
G|----14---------------11-----------|--------12-14-----------12-------13-|
D|-------------------------12p10p9-9|------------------12h14----14-------|
A|----------------------------------|------------------------------------|
E|----------------------------------|------------------------------------|

E|--------------15\-------------------|--------------15\-------------------|
B|--14p12-------15\-------------15----|--14p12-------15\-------------15----|
G|--------12-14-----------12-------13-|--------12-14-----------12-------13\|
D|------------------12h14----14-------|------------------12h14----14-------|
A|------------------------------------|------------------------------------|
E|------------------------------------|------------------------------------|

E|----------------------------------|----------------------------------|
B|----------------------------------|----------------------------------|
G|-9b11/\/\r10/\/\/\/\r9~~~~~~~~~~~~|----------------------------------|
D|----------------------------------|----------------------------------|
A|----------------------------------|----------------------------------|
E|----------------------------------|----------------------------------|
                                      Hands gripped to the wheel, held
  too tight too feel the face pressed to the glass please don't ask
  One more breath, one more it's alright, I could never have enough
  Give enough be enough you could never stand to stay there
  Only, only, only fade away, fade away hey hey oh_____!


Chorus:

E|------------------------------|------------------------------|
B|------------------------------|------------------------------|
G|-2----2--2---2--2---2--2--2---|------------------------------|
D|-2----2--2---2--2---2--2--2---|-2----2--2---2--2---2--2--2---|
A|-0----0--0---0--0---0--0--0---|-2----2--2---2--2---2--2--2---|
E|------------------------------|-0----0--0---0--0---0--0--0---|
  Push  just a little too late   Is this what you want?What you 

E|------------------------------|------------------------------|
B|------------------------------|------------------------------|
G|-0----0--0---0--0---0--0--0---|-2----2--2---2--2---2--2--2---|
D|-0----0--0---0--0---0--0--0---|-2----2--2---2--2---2--2--2---|
A|-x----x--x---x--x---x--x--x---|-0----0--0---0--0---0--0--0---|
E|-3----3--3---3--3---3--3--3---|------------------------------|
  need?Is this whatyou wanted me to be? Always love me strap to
                                  (Push just a little too late!)

E|------------------------------|------------------------------|
B|------------------------------|------------------------------|
G|------------------------------|------------------------------|
D|-2----2--2---2--2---2--2--2---|-4----4--4---4--4---4--4--4---|
A|-2----2--2---2--2---2--2--2---|-4----4--4---4--4---4--4--4---|
E|-0----0--0---0--0---0--0--0---|-2----2--2---2--2---2--2--2---|
  You,  lock  it down  and drive  me through,  oh_____ NO______!

  with wah-wah pedel
E|----------------------------------|----------------------------------|
B|-----5p0---3p0---5p0---3p0---5p0--|---3p0---5p0---3p0---5p0---3p0----|
G|-/4~~----4-----4-----4-----4------|-4-----4-----4-----4-----4-----4--|
D|----------------------------------|----------------------------------|
A|----------------------------------|----------------------------------|
E|----------------------------------|----------------------------------|
 |                                                                     |
E|----------------------------------|----------------------------------|
B|------0--------0---0-----0-----0--|------0--------0---0-----0-----0--|
G|--4---4---4----4---4--4--4--4--4--|--4---4---4----4---4--4--4--4--4--|
D|--4-------4-----------4-----4-----|--2-------2-----------2-----2-----|
A|--2-------2-----------2-----2-----|--0-------0-----------0-----0-----|
E|----------------------------------|----------------------------------|
[ Tab from: http://www.guitartabs.cc/tabs/m/moist/push_tab_ver_2.html ]
E|----------------------------------|----------------------------------|
B|-----5p0---3p0---5p0---3p0---5p0--|---3p0---5p0---3p0---5p0---3p0----|
G|-/4~~----4-----4-----4-----4------|-4-----4-----4-----4-----4-----4--|
D|----------------------------------|----------------------------------|
A|----------------------------------|----------------------------------|
E|----------------------------------|----------------------------------|
 |                                                                     |
E|----------------------------------|----------------------------------|
B|------0--------0---0-----0-----0--|------0--------0---0-----0--------|
G|--4---4---4----4---4--4--4--4--4--|--4---4---4----4---4--4--4-2h4----|
D|--0-------0-----------0-----0-----|--2-------2-----------2--------2--|
A|--2-------2-----------2-----2-----|--0-------0-----------0-----------|
E|--3-------3-----------3-----3-----|----------------------------------|


E|----------------------------------|----------------------------------|
B|-----5p0---3p0---5p0---3p0---5p0--|---3p0---5p0---3p0---5p0---3p0----|
G|-/4~~----4-----4-----4-----4------|-4-----4-----4-----4-----4-----4--|
D|----------------------------------|----------------------------------|
A|----------------------------------|----------------------------------|
E|----------------------------------|----------------------------------|
 |                                                                     |
E|----------------------------------|----------------------------------|
B|------0--------0---0-----0-----0--|------0--------0---0-----0-----0--|
G|--4---4---4----4---4--4--4--4--4--|--4---4---4----4---4--4--4--4--4--|
D|--4-------4-----------4-----4-----|--2-------2-----------2-----2-----|
A|--2-------2-----------2-----2-----|--0-------0-----------0-----0-----|
E|----------------------------------|----------------------------------|
       (      Push        Just     a           little        too

E|----------------------------------|----------------------------------|
B|-----5p0---3p0---5p0---3p0---5p0--|---3p0---5p0---3p0---5p0---3p0----|
G|-/4~~----4-----4-----4-----4------|-4-----4-----4-----4-----4-----4--|
D|----------------------------------|----------------------------------|
A|----------------------------------|----------------------------------|
E|----------------------------------|----------------------------------|
 |                                                                     |
E|----------------------------------|----------------------------------|
B|------0--------0---0-----0-----0--|------0--------0---0-----0--------|
G|--4---4---4----4---4--4--4--4--4--|--4---4---4----4---4--4--4-2h4----|
D|--0-------0-----------0-----0-----|--2-------2-----------2--------2--|
A|--2-------2-----------2-----2-----|--0-------0-----------0-----------|
E|--3-------3-----------3-----3-----|----------------------------------|
                            Just   a           little    too    late!
      late! )

E|----------------------------------|----------------------------------|
B|-----5p0---3p0---5p0---3p0---5p0--|---3p0---5p0---3p0---5p0---3p0----|
G|-/4~~----4-----4-----4-----4------|-4-----4-----4-----4-----4-----4--|
D|----------------------------------|----------------------------------|
A|----------------------------------|----------------------------------|
E|----------------------------------|----------------------------------|
 |                                                                     |
E|----------------------------------|----------------------------------|
B|------0--------0---0-----0-----0--|------0--------0---0-----0-----0--|
G|--4---4---4----4---4--4--4--4--4--|--4---4---4----4---4--4--4--4--4--|
D|--4-------4-----------4-----4-----|--2-------2-----------2-----2-----|
A|--2-------2-----------2-----2-----|--0-------0-----------0-----0-----|
E|----------------------------------|----------------------------------|
       (      Push        Just     a           little        too

E|----------------------------------|----------------------------------|
B|-----5p0---3p0---5p0---3p0---5p0--|---3p0---5p0---3p0---5p0---3p0----|
G|-/4~~----4-----4-----4-----4------|-4-----4-----4-----4-----4-----4--|
D|----------------------------------|----------------------------------|
A|----------------------------------|----------------------------------|
E|----------------------------------|----------------------------------|
 |                                                                     |
E|----------------------------------|----------------------------------|
B|------0--------0---0-----0-----0--|------0--------0---0-----0--------|
G|--4---4---4----4---4--4--4--4--4--|--4---4---4----4---4--4--4-2h4----|
D|--0-------0-----------0-----0-----|--2-------2-----------2--------2--|
A|--2-------2-----------2-----2-----|--0-------0-----------0-----------|
E|--3-------3-----------3-----3-----|----------------------------------|
          I              wanted           More             then        
      late! )

E|----------------------------------|----------------------------------|
B|-----5p0---3p0---5p0---3p0---5p0--|---3p0---5p0---3p0---5p0---3p0----|
G|-/4~~----4-----4-----4-----4------|-4-----4-----4-----4-----4-----4--|
D|----------------------------------|----------------------------------|
A|----------------------------------|----------------------------------|
E|----------------------------------|----------------------------------|
 |                                                                     |
E|----------------------------------|----------------------------------|
B|------0--------0---0-----0-----0--|------0--------0---0-----0-----0--|
G|--4---4---4----4---4--4--4--4--4--|--4---4---4----4---4--4--4--4--4--|
D|--4-------4-----------4-----4-----|--2-------2-----------2-----2-----|
A|--2-------2-----------2-----2-----|--0-------0-----------0-----0-----|
E|----------------------------------|----------------------------------|
      this! 
      (      Push        Just     a           little        too

E|----------------------------------|----------------------------------|
B|-----5p0---3p0---5p0---3p0---5p0--|---3p0---5p0---3p0---5p0---3p0----|
G|-/4~~----4-----4-----4-----4------|-4-----4-----4-----4-----4-----4--|
D|----------------------------------|----------------------------------|
A|----------------------------------|----------------------------------|
E|----------------------------------|----------------------------------|
 |                                                                     |
E|----------------------------------|----------------------------------|
B|------0--------0---0-----0-----0--|------0--------0---0-----0--------|
G|--4---4---4----4---4--4--4--4--4--|--4---4---4----4---4--4--4-2h4----|
D|--0-------0-----------0-----0-----|--2-------2-----------2--------2--|
A|--2-------2-----------2-----2-----|--0-------0-----------0-----------|
E|--3-------3-----------3-----3-----|----------------------------------|
           I         expected                More      then        this!
      late! )

E|----------------------------------|----------------------------------|
B|-----5p0---3p0---5p0---3p0---5p0--|---3p0---5p0---3p0---5p0---3p0----|
G|-/4~~----4-----4-----4-----4------|-4-----4-----4-----4-----4-----4--|
D|----------------------------------|----------------------------------|
A|----------------------------------|----------------------------------|
E|----------------------------------|----------------------------------|
 |                                                                     |
E|----------------------------------|----------------------------------|
B|------0--------0---0-----0-----0--|------0--------0---0-----0-----0--|
G|--4---4---4----4---4--4--4--4--4--|--4---4---4----4---4--4--4--4--4--|
D|--4-------4-----------4-----4-----|--2-------2-----------2-----2-----|
A|--2-------2-----------2-----2-----|--0-------0-----------0-----0-----|
E|----------------------------------|----------------------------------|
                          More       then                 this!
      (      Push        Just     a           little        too

E|----------------------------------|----------------------------------|
B|-----5p0---3p0---5p0---3p0---5p0--|---3p0---5p0---3p0---5p0---3p0----|
G|-/4~~----4-----4-----4-----4------|-4-----4-----4-----4-----4-----4--|
D|----------------------------------|----------------------------------|
A|----------------------------------|----------------------------------|
E|----------------------------------|----------------------------------|
 |                                                                     |
E|----------------------------------|----------------------------------|
B|------0--------0---0-----0-----0--|------0--------0---0-----0--------|
G|--4---4---4----4---4--4--4--4--4--|--4---4---4----4---4--4--4-2h4----|
D|--0-------0-----------0-----0-----|--2-------2-----------2--------2--|
A|--2-------2-----------2-----2-----|--0-------0-----------0-----------|
E|--3-------3-----------3-----3-----|----------------------------------|
                          More       then                 this!
      late! )

E|----------------------------------|---------------------12-----------|
B|-12-------------------------------|--12-b-(14)--r--(12)-15b(17)r(15)-|
G|-14b(16)-r-(14)-b-(16)-r(14)------|----------------------------------|
D|----------------------------------|----------------------------------|
A|----------------------------------|----------------------------------|
E|----------------------------------|----------------------------------|
 |                                                                     |
E|----------------------------------|----------------------------------|
B|------0--------0---0-----0-----0--|------0--------0---0-----0-----0--|
G|--4---4---4----4---4--4--4--4--4--|--4---4---4----4---4--4--4--4--4--|
D|--4-------4-----------4-----4-----|--2-------2-----------2-----2-----|
A|--2-------2-----------2-----2-----|--0-------0-----------0-----0-----|
E|----------------------------------|----------------------------------|
                          More       then                 this!
      (      Push        Just     a           little        too

E|----------------------------------|----------------------------------|
B|-12-------------------------------|-10b(12)-r-(10)-------------------|
G|-14b(16)-r-(14)-b-(16)-r(14)------|------------------9b(11)-r-(9)----|
D|----------------------------------|----------------------------------|
A|----------------------------------|----------------------------------|
E|----------------------------------|----------------------------------|
 |                                                                     |
E|----------------------------------|----------------------------------|
B|------0--------0---0-----0-----0--|------0--------0---0-----0--------|
G|--4---4---4----4---4--4--4--4--4--|--4---4---4----4---4--4--4-2h4----|
D|--0-------0-----------0-----0-----|--2-------2-----------2--------2--|
A|--2-------2-----------2-----2-----|--0-------0-----------0-----------|
E|--3-------3-----------3-----3-----|----------------------------------|
                          More       then                 this!
      late! )

E|----------------------------------|---------------------12-----------|
B|-12-------------------------------|--12-b-(14)--r--(12)-15b(17)r(15)-|
G|-14b(16)-r-(14)-b-(16)-r(14)------|----------------------------------|
D|----------------------------------|----------------------------------|
A|----------------------------------|----------------------------------|
E|----------------------------------|----------------------------------|
 |                                                                     |
E|----------------------------------|----------------------------------|
B|------0--------0---0-----0-----0--|------0--------0---0-----0-----0--|
G|--4---4---4----4---4--4--4--4--4--|--4---4---4----4---4--4--4--4--4--|
D|--4-------4-----------4-----4-----|--2-------2-----------2-----2-----|
A|--2-------2-----------2-----2-----|--0-------0-----------0-----0-----|
E|----------------------------------|----------------------------------|
                          More       then                 this!
      (      Push        Just     a           little        too

E|----------------------------------|----------------------------------|
B|-12-------------------------------|-10b(12)-r-(10)-------------------|
G|-14b(16)-r-(14)-b-(16)-r(14)------|------------------9b(11)-r-(9)----|
D|----------------------------------|----------------------------------|
A|----------------------------------|----------------------------------|
E|----------------------------------|----------------------------------|
 |                                                                     |
E|----------------------------------|----------------------------------|
B|------0--------0---0-----0-----0--|------0--------0---0-----0--------|
G|--4---4---4----4---4--4--4--4--4--|--4---4---4----4---4--4--4-2h4----|
D|--0-------0-----------0-----0-----|--2-------2-----------2--------2--|
A|--2-------2-----------2-----2-----|--0-------0-----------0-----------|
E|--3-------3-----------3-----3-----|----------------------------------|
                          More       then                 this!
      late! )

E|----------------------------------|---------------------12-----------|
B|-12-------------------------------|--12-b-(14)--r--(12)-15b(17)r(15)-|
G|-14b(16)-r-(14)-b-(16)-r(14)------|----------------------------------|
D|----------------------------------|----------------------------------|
A|----------------------------------|----------------------------------|
E|----------------------------------|----------------------------------|
 |                                                                     |
E|----------------------------------|----------------------------------|
B|------0--------0---0-----0-----0--|------0--------0---0-----0-----0--|
G|--4---4---4----4---4--4--4--4--4--|--4---4---4----4---4--4--4--4--4--|
D|--4-------4-----------4-----4-----|--2-------2-----------2-----2-----|
A|--2-------2-----------2-----2-----|--0-------0-----------0-----0-----|
E|----------------------------------|----------------------------------|
                          More       then                 this!
      (      Push        Just     a           little        too

E|----------------------------------|----------------------------------|
B|-12-------------------------------|-10b(12)-r-(10)-------------------|
G|-14b(16)-r-(14)-b-(16)-r(14)------|------------------9b(11)-r-(9)----|
D|----------------------------------|----------------------------------|
A|----------------------------------|----------------------------------|
E|----------------------------------|----------------------------------|
 |                                                                     |
E|----------------------------------|----------------------------------|
B|------0--------0---0-----0-----0--|------0--------0---0-----0--------|
G|--4---4---4----4---4--4--4--4--4--|--4---4---4----4---4--4--4-2h4----|
D|--0-------0-----------0-----0-----|--2-------2-----------2--------2--|
A|--2-------2-----------2-----2-----|--0-------0-----------0-----------|
E|--3-------3-----------3-----3-----|----------------------------------|
                          More       then    this!   Aw__ ah ah ah

E|-----------------------------|------------------------------|
B|-----0---0--0-----0---0------|--0-----(0)------0----(0)-----|
G|--4--4-4-4--4--4--4-4-4-4----|--4-----(4)------4----(4)-----|
D|--2----2-------2----2---2----|--4-----(4)-------------------|
A|--0----0-------0----0---0----|--2-----(2)-------------------|
E|-----------------------------|------------------------------|
   aw  ah  ah  ah  aw   ah   ha ha________________!
      late! )
Comments